Oops, an error
Loading. Please wait.

Señora Del Mar Chords

version 2
version 2

Whole song

152 views 1 this week
no commentswrite comment
1 2 3 4 5
3 more votes to show rating
add to favorites
launch autoscroll
font size
0
reset
transpose
0
reset
simplify chords
display chords
guitar tuner
×
Best way to learn
"Señora Del Mar"
Autoscroll
slow
fast
+/-
esc
set tempo
stop
Señora del mar - Juan Perro (Santiago Auserón)

Acordes:

    Bm7/4  E7/9   Ammaj7 A#dim  C#m7   F#7/-9
e|--x------x------x------x------x------x------|e
b|--5------7------5------5------9------8------|b
g|--7------7------6------6------9------9------|g
d|--7------6------6------5------9------8------|d
a|--x------7------x------x------x------9------|a
e|--7------x------5------6------9------x------|e

    Bm7    Dmmaj7 Dm7    E7     Dm6
e|--x------x------x------x------x------|e
b|--7------10-----10-----5------10-----|b
g|--7------11-----10-----7------10-----|g
d|--7------11-----10-----6------9------|d
a|--x------x------x------7------x------|a
e|--7------10-----10-----x------10-----|e

Comienzo:
El ritmo principal es algo así:
e|-----------------------------|
b|---------5-----7-----5-----5-|
g|---------7-----7-----6-----6-|
d|---------7-----6-----6-----5-|
a|-------------7---7-----------|
e|---5-6-7---7-------5---5-6---|

Letra con acordes:

[1a estrofa]
Bm7/4     E7/9    Ammaj7    A#dim
Hoja tras hoja se lleva el viento
Bm7/4     E7/9    Ammaj7    A#dim
De un libro que no podré acabar
Bm7/4     E7/9      C#m7 F#7/-9
Haga lo que haga mi pensamiento
Bm7             E7/9 Ammaj7
Siempre está en otro lugar

[Estribillo]
Dmmaj7              Ammaj7
Dicen que sueño despierto
Dm7                E7
De noche me oyen hablar
Dmmaj7  Dm6           C#m7
Cura esta herida que siento
   F#7/-9  Bm7
En mi pensamiento
E7         Ammaj7
Señora del mar

[2da estrofa - igual que la primera]
Bm7/4     E7/9    Ammaj7    A#dim
Oigo la voz del marino muerto
Bm7/4     E7/9    Ammaj7    A#dim
En la tormenta del altamar
Bm7/4     E7/9      C#m7 F#7/-9
Siento nostalgia si estoy en puerto
Bm7             E7/9 Ammaj7
Del que se fue a navegar

[Estribillo]

[3ra estrofa - mismo que 1a y 2da pero marcando el ritmo de la percusión]
Bm7/4     E7/9    Ammaj7    A#dim
Nunca se acuesta en el mismo lecho
Bm7/4     E7/9    Ammaj7    A#dim
Mi ánima inquieta y crepuscular
Bm7/4     E7/9      C#m7 F#7/-9
Aunque termine siempre maltrecho
Bm7             E7/9 Ammaj7
Soy fiel al hecho de amar

[Estribillo]
Suggest correction
Give kudos to tab author, rate the tab!
1 2 3 4 5
comments
print report bad tab
guest
You may want to rate the tab now too:
select rating
Wanna post a correction for this tab? Suggest correction