Oops, an error
Loading. Please wait.

Hoy Comí Con El Abuelo Tab

32 views 1 this week
no commentswrite comment
1 2 3 4 5
3 more votes to show rating
add to favorites
launch autoscroll
font size
0
reset
how to read this tab
guitar tuner
Autoscroll
slow
fast
+/-
esc
set tempo
stop
Help us to improve Ultimate-Guitar.com Take our survey!
×
Hey! Esta canción está fácil, sólo un poco cansada, es muy repetitiva en la armonía
todo se toca igual así q nomás agárrale la onda al principio y ya tienes todo lo demás.


Riff1:                       Riff2:                 
      Cm     A#m   G#m             G    G#m   G        
  E|--8-------6-----4----|      |--3--------------|    
  A|---------------------|      |-----------------|    
  D|---------------------|      |---5----6----5---|    
  G|---8-8----7-----5----|      |-----------------|    
  b|---------------------|      |---------4-------|    
  e|----8-------6-----4--|      |----3-----4---3--|    


INTRO: [(Riff1) + (Riff2)x4 ]x2


                  Riff1, Riff1
Hoy comí con el abuelo
                  Riff1, Riff2
y después de la comida
                  Riff1
le pregunté tantas cosas,
       riff1
tantas cosas de la vida.


Se sentó en su 

mesedora              y fumanndo en su pipa
   |-0----3----------0------3-----------3-----------3-|
   |-----------3----------------3------------2--------|
   |---------------------------------------------0----|
   |--0----0----0-----0------0---0-------0----0---0---|
   |---1----1----------1------1-----------0----0------|
   |--------------------------------------------------|

                 Fm                 B7
me miró muy dulcemente y me dijo:
                    Riff1,    Riff1
la vida es una gran tipa.


Tú le pides a la vida
pero dime qué le ofreces
y esto no lo olvides nunca mi nieto
pídele lo que mereces.

la vida es como una esfera
que va por siempre rodando
nos da penas y alegrías
pero no nos dice cuando.

Ahora voy a decirte
unas verdades humanas
es el tiempo quien me enseña, mi nieto
y escribe sobre mis canas.

(Intro)

No hables de lo que no sepas
y al hablar se muy sincero
y no te pases la vida en milongas
ni malgastes tu dinero.

Sin llegar a la vagancia 
busca nuevas a vernturas
y recuerda q la hembra y la fruta
ni muy verdes ni maduras.

Ahora voy a decierte...

(intro)

No hables de lo que no sepas... etc etc etc...
Suggest correction
Give kudos to tab author, rate the tab!
1 2 3 4 5
comments
print report bad tab
guest
You may want to rate the tab now too:
select rating
Wanna post a correction for this tab? Suggest correction