Oops, an error
Loading. Please wait.

Cielo Rojo Tab

97 views 1 this week
no commentswrite comment
1 2 3 4 5
2 more votes to show rating
add to favorites
launch autoscroll
font size
0
reset
how to read this tab
guitar tuner
×
Best way to learn
"Cielo Rojo"
Autoscroll
slow
fast
+/-
esc
set tempo
stop
Hola, verán esta es la primera vez que colaboro así que por favor
no me vayan a juzgar muy feo por mi trabajo, me esforcé mucho.
Bueno, pues esta versión de la canción es para solista, en sí no es
tan difícil, pero si no la tocas como se debe, pues no suena chido.

Dedicatoria cursi: Esta canción se la dedico a Susana, la niña de mi
vida, ya sabes cuanto te quiero y ya que tanto te gusta esta canción, 
pues aquí está, te quiero.

Pues ahora, a la canción.

Acordes

         EADGBe
cuerda   654321
        ________
A:       002220
B7:       021202
C:       032010
D:       000232
E:       022100
Em:       022000


NOTA: Durante el Intro encontrarán varias cosas, el signo (*)
significa que el acorde se toca abierto, el signo (¬) es un rasgueo
simple hacia abajo, la equis (x) es un golpe de cuerdas y el signo (~)
al final del Intro significa que de esa parte se liga directo al primer 
acorde de la canción que es Em. Los demás acordes y notas se pulsan y 
listo. Eso es todo.


Intro

          *                *     ¬
e|-----3--3----2-0-2----3--3--x--3----5-----------------------------|1
B|---5----5----3--------3--3--x--3----5-8-7-5----3-1--1--0---0--0---|2
G|-4------4----2--------0--0--x--0----5---5------2----2----2----2---|3
D|-------------0-----------2--x--2----0---0------0----0---------0---|4
A|----------------------3--3--x--3----------------------------------|5
E|-----0----------------------x------------------2----3-----------3-|6

                            *         ¬      ¬              ¬
e|------------0--2--3--2----0----x----0------2-------3--2---3--2----|1
B|--0--2--4-----------------0----x----0------2--2--2--------4-------|2
G|--------------------------0----x----0------3--------------2-------|3
D|--------------------------2----x----2------4----------------------|4
A|--2---------0-------------2----x----2------4-------------------2--|5
E|---------------------3----0----x----0------2----------------------|6


e|----0-------------------------------------------------------------|1
B|--0------0-1-0---0-1---0------------------------------------------|2
G|---------------2-----2------0-2-0---0-2---0-----------------------|3
D|----------------------------------4-----4------2-4-2-1-2-4-1~~~~~-|4
A|-----------0------------------------------------------------------|5
E|----0------------------0------0-----------0------0----------------|6


El rasgueo a partir de aqui y durante toda la canción es de cuatro 
tiempos:  Sencillo, Abierto, Golpe, Sencillo


Em x4


Em
Solo sin tu cariño, 
         D            C
voy caminando, voy caminando,
            B7
y no sé que hacer
Em               D
ni el cielo me contesta 
         C               B7      (Puente 1)
cuando pregunto por ti, mujer. 


Puente 1

e|--7--8--7------------|1
B|--7--------10--8--7--|2
G|--8------------------|3
D|---------------------|4
A|---------------------|5
E|--7------------------|6


Em
No he podido olvidarte 
       D              C
desde la noche, desde la noche 
            B7
en que te perdí; 
Em                D
sombras de dudas y celos 
         C         B7             E
sólo me envuelven pensando a ti. 


E x2


E
Deja que yo te busque y si te encuentro, 
          B7
vuelve otra vez.
A          E
Olvida lo pasado, 
          B7                 E
ya no te acuerdes de aquel ayer,
A          E
olvida lo pasado
          B7                 E      (Puente 2)
ya no te acuerdes de aquel ayer.


Puente 2

El rasgueo es igual al que se está tocando, pero el cambio de acorde 
debe ser rápido para que suene bien:

 |----------------------x3----------------------------|

   E Sencillo   E Abierto   Golpe     D Sencillo
e|--0------------0-----------x---------2--------------|1
B|--0------------0-----------x---------3--------------|2
G|--1------------1-----------x---------2--------------|3
D|--2------------2-----------x---------0--------------|4
A|--2------------2-----------x---------0--------------|5
E|--0------------0-----------x---------0--------------|6


Se toca el Intro nuevamente

          *                *     ¬
e|-----3--3----2-0-2----3--3--x--3----5-----------------------------|1
B|---5----5----3--------3--3--x--3----5-8-7-5----3-1--1--0---0--0---|2
G|-4------4----2--------0--0--x--0----5---5------2----2----2----2---|3
D|-------------0-----------2--x--2----0---0------0----0---------0---|4
A|----------------------3--3--x--3----------------------------------|5
E|-----0----------------------x------------------2----3-----------3-|6

                            *         ¬      ¬              ¬
e|------------0--2--3--2----0----x----0------2-------3--2---3--2----|1
B|--0--2--4-----------------0----x----0------2--2--2--------4-------|2
G|--------------------------0----x----0------3--------------2-------|3
D|--------------------------2----x----2------4----------------------|4
A|--2---------0-------------2----x----2------4-------------------2--|5
E|---------------------3----0----x----0------2----------------------|6


e|----0-------------------------------------------------------------|1
B|--0------0-1-0---0-1---0------------------------------------------|2
G|---------------2-----2------0-2-0---0-2---0-----------------------|3
D|----------------------------------4-----4------2-4-2-1-2-4-1~~~~~-|4
A|-----------0------------------------------------------------------|5
E|----0------------------0------0-----------0------0----------------|6


Em x4


Em
Mientras yo estoy dormido 
         D
sueño que vamos los dos 
      C                  B7
muy juntos a un cielo azul, 
Em             D
pero cuando despierto 
            C                 B7        (Puente 1)
el cielo es rojo, me faltas tú. 


Puente 1

e|--7--8--7------------|1
B|--7--------10--8--7--|2
G|--8------------------|3
D|---------------------|4
A|---------------------|5
E|--7------------------|6


Em
Aunque yo sea culpable 
            D
de aquella triste, de aquella 
  C            B7
triste separación, 
Em                 D
vuelve por Dios tus ojos, 
           C
vuelve a quererme, 
B7            E
vuelve a mi amor. 


E x2


E
Deja que yo te busque y si te encuentro, 
          B7
vuelve otra vez.
A          E
Olvida lo pasado, 
          B7                 E
ya no te acuerdes de aquel ayer,
A          E
olvida lo pasado
          B7                  (Puente 2)
ya no te acuerdes de aquel ayer.


Puente 2

 |----------------------x3----------------------------|

   E Sencillo   E Abierto   Golpe     D Sencillo
e|--0------------0-----------x---------2--------------|1
B|--0------------0-----------x---------3--------------|2
G|--1------------1-----------x---------2--------------|3
D|--2------------2-----------x---------0--------------|4
A|--2------------2-----------x---------0--------------|5
E|--0------------0-----------x---------0--------------|6


E trémolo (lúcete que es el acorde final)

Aplausos, agradecimientos y 
FIN

Cualquier comentario, duda, correción o queja, pues escribanme y ya.
Suggest correction
Give kudos to tab author, rate the tab!
1 2 3 4 5
comments
print report bad tab
guest
You may want to rate the tab now too:
select rating
Wanna post a correction for this tab? Suggest correction