Oops, an error
Loading. Please wait.

Planeta Carmesí Chords

version 2
version 2

Whole song

7 views 3 this week
no commentswrite comment
1 2 3 4 5
3 more votes to show rating
add to favorites
launch autoscroll
font size
0
reset
transpose
0
reset
display chords
guitar tuner
×
Best way to learn
"Planeta Carmesí"
Autoscroll
slow
fast
+/-
esc
set tempo
stop
Empieza el bajo con distorsión

----------------------------------------------------------
----------------------------------------------------------
-10-10-10-10-10----8-8-8-8-8----3-3-3-3-3-----------------
-8--8--8--8--8-----6-6-6-6-6----1-1-1-1-1-----------------


          C               Bb              F
E|-----------------------------------------------------------
B|--------5--------------1/3-1-------------------------------
G|------5---5----------3-------------4/5-4/5-4/5-4/5-4/5-----
D|------------------(3)--------------------------------------
A|--0/3---------0/1------------------------------------------
E|-----------------------------------------------------------

La base es con estas tres notas


C Bb F  C     Bb          F
Amanecí en otro sueño comprendí
que era imposible despertar
Algo me arrastra más allá

Te conocí, en el planeta carmesí
y eras distinta a los demás
No, no me intentes regresar

Sintetizador
Al fin partí, desde el planeta carmesí
Donde en las noches brillaran


Satélites de amor?
Suggest correction
Give kudos to tab author, rate the tab!
1 2 3 4 5
comments
print report bad tab
guest
You may want to rate the tab now too:
select rating
Wanna post a correction for this tab? Suggest correction