Oops, an error
Loading. Please wait.

Tu Diversión Tab

version 2
version 2

Whole song

1 view 1 this week
no commentswrite comment
1 2 3 4 5
3 more votes to show rating
add to favorites
launch autoscroll
font size
0
reset
how to read this tab
guitar tuner
Autoscroll
slow
fast
+/-
esc
set tempo
stop
Help us to improve Ultimate-Guitar.com Take our survey!
×
Acá les traigo otra de juana...
toquenla con el disco para sacarle bien los
tiempos de cada acordes ya que no son parejos...
cualquier duda o comentario escribir a cuarta_d@


Intro: Fm  C#  D# (x6)

e-8--8--8---8--8--8---x-4-4-4--x-6-6-6-|
B-9--9--9---9--9--9---x-6-6-6--x-8-8-6-|
G-10-10-8---10-10-8---x-6-6-6--x-8-8-6-|
D-10-10-10--10-10-10--x-6-6-6--x-8-8-8-|
A-8--8--8---8--8--8---x-4-4-4--x-6-6-6-|
E--------------------------------------|

Fm     G#    A#m    Fm     A#m
Me aburrí de tu postura y de tu vanidad
Fm     G#  A#m   Fm       A#m
Pero igual te necesito para respirar

Fm    C#  D# (x2)

Fm    G#    A#m    Fm       A#m
Dame ya esa vacuna que me haga olvidar
Fm     G#     A#m   Fm       A#m
me arrastras a la locura sin poder pensar
(silencio)
transformandome

Fm
Harto de ser
A#m     C#
 tu diversión
G#     C
ouootra vez (bis)

Fm    C#  D# (x2)

Fm    G#    A#m    Fm            A#m
Te reis de lo que siento y de mi soledad
Fm       G#    A#m    Fm             A#m
porque estas seca por dentro como un arbol de navidad
(silencio)
deshojandose

Fm
Harto de ser
A#m     C#
 tu diversión
G#     C
ouootra vez (bis)

Solo (x2): (sobre base de estribillo)

e---------------------------------------------------------|
B-----------------------9------9-11-11-11-9---------------|
G---------8---8-10---10---8-10--------------10-10-10-10/0-|
D-8/10-10--10---------------------------------------------|
A---------------------------------------------------------|
E---------------------------------------------------------|

e----------------------------------|
B----------------------8----8----8-|
G--------------------9----9----9---|
D-6-6-8-6-8-6-8/10-----------------|
A----------------------------------|
E----------------------------------|
Nota: 8/10: arrastra


Fm    C#  D# (x2)

Fm
Harto de ser
A#m     C#
 tu diversión
G#     C
ouootra vez (bis)


Acordes - sugerencias:

Estrofa:
   Fm   G#  A#m
e--1----4----6--
B--1----4----6--
G--1----5----6--
D--3----6----8--
A--3----6----8--
E--1----4----6--

Estribillo:
   Fm  A#m  C#   G#   C
e--8----6---9----4----8--
B--9----6---9----4----8--
G--10---6---10---5----9--
D--10---8---11---6----10-
A--8----8---11---6----10-
E-------6---9----4----8--
Suggest correction
Give kudos to tab author, rate the tab!
1 2 3 4 5
comments
print report bad tab
guest
You may want to rate the tab now too:
select rating
Wanna post a correction for this tab? Suggest correction