Oops, an error
Loading. Please wait.

La Decisión Tab

by Juanes
26 views 1 this week
no commentswrite comment
1 2 3 4 5
3 more votes to show rating
add to favorites
launch autoscroll
font size
0
reset
how to read this tab
guitar tuner
×
Best way to learn
"La Decisión"
Autoscroll
slow
fast
+/-
esc
set tempo
stop
Mi guitarra es acustica, no se en otras, pero se escucha muy bien.      

                              
      |se hacen vibrar en cada toque|                              vibr&desliz
e |---12----12-11----11-9---9--5/7---------------------------------------------------------
B |------9--------9-------10--------------9-10-12~-12/14-12-10-9---------------------------
G |----------------------------------9-11-----------------------11-9~/--------8-9-8--------
D |-------------------------------------------------------------------9-9/11--------11-9~~-
A |----------------------------------------------------------------------------------------
E |----------------------------------------------------------------------------------------

     |        |rapido         			       ~~~~~~~~~
e |-------------------------------------------7/9~-9~------------------------------------
B |---------------9-10-12--10/12~--12-14-12~----------10-10-14-12b~---10p9---------------
G |----------9-11---------------------------------------------------------11-9--se-suelta
D |--9h11h12-----------------------------------------------------------------------------
A |--------------------------------------------------------------------------------------
E |--------------------------------------------------------------------------------------
  
  |se hacen vibrar en cada toque|    
e |---12----12-11----11-9----------------------------
B |------9--------9-------10/14-12~~~---10-9---------
G |------------------------------------------11-9~~--
D |--------------------------------------------------
A |--------------------------------------------------
E |--------------------------------------------------


preguntas, correcciones o sugerencias
dandukke@
Suggest correction
Give kudos to tab author, rate the tab!
1 2 3 4 5
comments
print report bad tab
guest
You may want to rate the tab now too:
select rating
Wanna post a correction for this tab? Suggest correction