Oops, an error
Loading. Please wait.

La Decisión Bass Tab

9 views 1 this week
no commentswrite comment
1 2 3 4 5
3 more votes to show rating
add to favorites
launch autoscroll
font size
0
reset
guitar tuner
Autoscroll
slow
fast
+/-
esc
set tempo
stop
Help us to improve Ultimate-Guitar.com Take our survey!
×
empezamos.....

    E      B      C#m    B     
G-|-----------4------6------4---|
D-|--------2------4------2------|
A-|----2------------------------|
E-|-0---------------------------|

SE SIGUE ASI HASTA EL CAMBIO DE ACORDES.

    A     C#m      A   B
G-|---------------------------|
D-|---------------------------|
A-|----7-----9-----11-----9---|
E-|-5-----7-----9------7------|

ESTA CANCION ES MUY FACIL, SIGAN ASI, EN EL PRIMER SOLO,  HAGAN LO DE 
E.


CASI EN EL FINAL VIENE ASI:

    E      A      C#m   B
G-|---------------------------|
D-|------------------6-----4--|
A-|----2------7---4-----2-----|
E-|-0------5------------------|


ESO ES TODO,  ESPERO QUE LES SIRVA.


|-------------------------------|
|-FRANCISCO JAVIER GARCIA ROSAS-|
|-------------------------------|
|------------F-G-R--------------|

Chaochi,  cundinamarca, Colombia.
Suggest correction
Give kudos to tab author, rate the tab!
1 2 3 4 5
comments
print report bad tab
guest
You may want to rate the tab now too:
select rating
Wanna post a correction for this tab? Suggest correction