Oops, an error
Loading. Please wait.

La Señal Tab

version 1
version 1

Whole song

107 views 1 this week
no commentswrite comment
1 2 3 4 5
2 more votes to show rating
add to favorites
launch autoscroll
font size
0
reset
how to read this tab
guitar tuner
Autoscroll
slow
fast
+/-
esc
set tempo
stop
Help us to improve Ultimate-Guitar.com Take our survey!
×
------0----0------------5---3---------3---2----------------------------
-------------3-----3----------5---3---------3--------------------------
---------------------4--------------4---------4-----4---2-----0---4----
----2----2------2------------------------------------------0-----------
-----------------------------------------------------------------------
--------------------------------------------------3--------------------

        Dame la fuerza y voluntad, dame la señal que
-------------------------------------------------------
-------------------------------------------------------
---4--2--0---4-------4---2--0-----4---4---2---0-----4--
-----------0-------------------0-----------------0-----
-------------------------------------------------------
-3-------------3----------------3---------------

necesito ahora     Para calmar esta pasión que ahoga y quiere salir...
-------------------------------------------------------------------------
-----8--7-------------8--7-------------10--8------------8--7-------------
----------7--9-------------7--9--------------9--7------------7-----------
---------------9--7-------------9--7----------------9----------9---------
--7----------------------------------------------------------------------
-------------------------------------------------------------------------

                      La luna llena me recuerda que vale la pena
-------12---10---8--7--5--------------------------------------------
--------------------------------------------------------------------
-----12---11---9----9--7-----4--2--0------4--------4----2-----0-----
--------------------------------------0---------------------------0-
--------------------------------------------------------------------
--------------------------3--------------------3--------------------

 luchar por ti... que vale la pena que vale la voz del amor habla en mi corazón
-------------------------------------------------------------------------------
-------------8--7-------------8--7-------------10---8-----------8---7----------
----4--------------7--9-------------7--9---------------9--7-------------7------
------------------------9--7-------------9-7-----------------9------------9----
--------7----------------------------------------------------------------------
-------------------------------------------------------------------------------

estoy conectado con Dios y con voz....
---12------10-------8----7----5-------
--------------------------------------
12-----11-------9-----9---7-------
--------------------------------------
--------------------------------------
--------------------------------------

  Hay una señal... en esta canción...
-3/5--3--0-------------------------
------------2--0---2/4--2--0-------
-----------------------------2---0-
-----------------------------------
-----------------------------------
-----------------------------------


G                G/B             C                 C*        D
Dame la fuerza que, que necesito libertad, de las ganas de volar
G            G/B               C               C*         D
Una mirada que, que vale mi felicidad, de las ganas de soñar
Am            F     Am
Es un largo camino, es el amor la señal....
                                   -----------------------
                                   -----------------------
                                   -----4--2--0------4----
                                   --------------0--------
                                   -----------------------
                                   --3--------------------
           Contigo todo es esperanza, contigo solo quiero vivir...
---------------------------------------------------------------------
---------------------------------------------------------------------
-----4--2--0-----4------4---2-----0----4----4-----2-----0-------4----
--------------0----------------------0----------------------0--------
---------------------------------------------------------------------
--3------------------3-------------------3---------------------------
     y vale la pena que vale
----------------------------
--8--7---------8--7---------
-------7--9--------7--9-----
-----------9--7---------9--7
7---------------------------
----------------------------
La voz del amor habla en mi corazón, estoy conectado con Dios y con voz....
----------------------------------------12------10-------8----7----5---------
---10---8-----------8---7----------------------------------------------------
-----------9--7-------------7--------12-----11-------9--------9----7---------
-----------------9------------9----------------------------------------------
-----------------------------------------------------------------------------
-----------------------------------------------------------------------------
  Hay una señal... en esta canción...
-3/5--3--0------------------------------
-------------2--0---2/4--2--0-------------
------------------------------2---0------
----------------------------------------
----------------------------------------
----------------------------------------
G                G/B             C                 C*        D
Dame la fuerza que, que necesito libertad, de las ganas de volar
G            G/B               C               C*         D
Una mirada que, que vale mi felicidad, de las ganas de soñar
Am            F     Am              D
Es un largo camino, es el amor la señal....


-Solo de violín- (acompañamos con el raspado del coro) G - G/B - C - C* - D


Am            F     Am              D
Es un largo camino, es el amor la señal....
G                G/B             C                 C*        D
Dame la fuerza que, que necesito libertad, de las ganas de volar
G            G/B               C               C*         D
Una mirada que, que vale mi felicidad, de las ganas de soñar
Am            F     Am
Es un largo camino, es el amor la señal....
G                G/B                  C                C*     D
Dame la fuerza (Es el amor la señal), dame las ganas (Es el amor la señal)
G                G/B                  C              C*     D
Dame el regalo (Es el amor la señal), de tu mirada (Es el amor la señal)
G            G/B                   C            C*     D
Una sonrisa (Es el amor la señal), Una palabra (Es el amor)
Am            F     Am
Es un largo camino, es el amor la señal....

----------------
----------------
----------------
----2-0----------
--------2-0------
------------3----

----] G

  G/B          C*   -Este acorde como no me acuerdo como se llama
---2---       -------  lo nombre así para esta tablatura-
---3---       ---1---
---4---       -------
-------       -------
-------       ---2---
---3---       ---3---

Nota: Para el acorde G/B pueden acomodarse con el dedo del medio en
la 6ta cuerda, índice en la 1era, anular en la 2da y el meñique en
la 3era y ajusten los márgenes pa que la tablatura les quepa en la
hoja. Comentarios, sugerencias, preguntas a (chabal2012@
Graxias....
Postdata: Al subir esta tablatura la letra de la canción se movió
en la parte de la tablatura, pero en la de los acordes esta todo bien
Suggest correction
Give kudos to tab author, rate the tab!
1 2 3 4 5
comments
print report bad tab
guest
You may want to rate the tab now too:
select rating
Wanna post a correction for this tab? Suggest correction