Oops, an error
Loading. Please wait.

La Señal Tab

version 2
version 2

Whole song

62 views 3 this week
no commentswrite comment
1 2 3 4 5
3 more votes to show rating
add to favorites
launch autoscroll
font size
0
reset
how to read this tab
guitar tuner
Autoscroll
slow
fast
+/-
esc
set tempo
stop
Help us to improve Ultimate-Guitar.com Take our survey!
×
e|------0-----------------------5--3---------------3--2--------------|
B|-------------3--0-------------------5--3--0-------------3----------|
G|--------------------2--0-------------------------------------------|
D|---2-----2------------------------------------0--------------------|
A|---------------------------3---------------------------------------|
E|-------------------------------------------------------------------|


e|-------------------------------------------------------------------|
B|---2/5--0----------------------------------------------------------|
G|--------------4--2------2--4------4--2------2--4----4--2----2--4---|
D|---------------------4-------------------4----------------4--------|
A|-------------------------------------------------------------------|
E|-----------3-------------------3------------------3----------------|


e|--------------------------------------5--3--------------12-----10--|
B|-----8--7-------------8--7------------------5--3--0----------------|
G|-----------7--9------------7--9----------------------12-----11-----|
D|-----------------9--------------9--3-------------------------------|
A|---7----------------7----------------------------------------------|
E|-------------------------------------------------------------------|


e|-----9----7----5---------------------------------------------------|
B|-------------------------------------------------------------------|
G|---9----8----7-----------------------------------------------------|
D|-------------------------------------------------------------------|
A|-------------------------------------------------------------------|
E|-------------------------------------------------------------------|
Suggest correction
Give kudos to tab author, rate the tab!
1 2 3 4 5
comments
print report bad tab
guest
You may want to rate the tab now too:
select rating
Wanna post a correction for this tab? Suggest correction