Oops, an error
Loading. Please wait.

Lo Que Me Gusta A Mí Tab

version 3
version 3

Whole song

36 views 1 this week
no commentswrite comment
1 2 3 4 5
3 more votes to show rating
add to favorites
launch autoscroll
font size
0
reset
how to read this tab
guitar tuner
Autoscroll
slow
fast
+/-
esc
set tempo
stop
Help us to improve Ultimate-Guitar.com Take our survey!
×
Notas

 (E)  1     2                (Gm)  3     4     5
E ||-----|-----|             E ||--o--|-----|-----|
B ||-----|-----|             B ||--o--|-----|-----|
G ||--o--|-----|             G ||--o--|-----|-----|
D ||-----|--o--|             D ||--o--|-----|--o--|
A ||-----|--o--|             A ||--o--|-----|--o--|
E ||-----|-----|             E ||--o--|-----|-----|

 (B)  2     3     4
E ||--o--|-----|-----|
B ||--o--|-----|--o--|
G ||--o--|-----|--o--|
D ||--o--|-----|--o--|
A ||--o--|-----|-----|
E ||--o--|-----|-----|

 (E)  1     2                (Gm)  2     3     4
E ||-----|-----|             E ||--o--|-----|-----|
B ||-----|--o--|             B ||--o--|-----|-----|
G ||-----|--o--|             G ||--o--|-----|-----|
D ||-----|--o--|             D ||--o--|-----|--o--|
A ||-----|-----|             A ||--o--|-----|--o--|
E ||-----|-----|             E ||--o--|-----|-----|

INTRO

  1) E----------------------------------------------------------------------------------|
     B------------------------------------------------------------5-4-------------------|
     G--6-6-4--6-6-4--6-6-4--6-6-4--6-2----4-4-6-4-6-2----4-4-6-4-----6-4---------------|
     D----------------------------------4--------------4------------------7-6-4-2-------|
     A----------------------------------------------------------------------------------|
     E----------------------------------------------------------------------------------|

  2) E---------------------------------------------------||-------------|---0--0------0-|
     B---------------------------------------------------||-------------|-0-----0----0--|
     G--6-6-4--6-6-4--6-6-4--6-6-4--6-2----4-4-6-4-6-2---||4-4-4-2------|--------2--2---|
     D--6-6-4--6-6-4--6-6-4--6-6-4--6-2-4--4-4-6-4-6-2-4-||-------6-4-2-|---------22----|
     A----------------------------------4--------------4-||-------------|---------------|
     E---------------------------------------------------||-------------|---------------|

-------------------------------------------------------------------------------------------
- 2)                                                                                      -
-       Primera Guitarra                                                                  -
-    E---------------------------------------------------||-------------|---0--0------0-| -
-    B---------------------------------------------------||-------------|-0-----0----0--| -
-    G--6-6-4--6-6-4--6-6-4--6-6-4--6-2----4-4-6-4-6-2---||4-4-4-2------|--------2--2---| -
-    D----------------------------------4--------------4-||-------6-4-2-|---------22----| -
-    A---------------------------------------------------||-------------|---------------| -
-    E---------------------------------------------------||-------------|---------------| -
-       Segunda Guitarra                                                                  -
-    E---------------------------------------------------|                                -
-    B---------------------------------------------------|                                -
-    G---------------------------------------------------|                                -
-    D--6-6-4--6-6-4--6-6-4--6-6-4--6-2----4-4-6-4-6-2---|                                -
-    A----------------------------------4--------------4-|                                -
-    E---------------------------------------------------|                                -
-                                                                                         -
-------------------------------------------------------------------------------------------

E                   B
Cuando yo estoy pensando en ti
A                    E
Amor es lo que mas fuerte sale de mí
E                   B
Por eso yo siempre vivo tan feliz
A                      E
Pues tu eres lo que yo mas quiero para mi

E                  B
Cuando yo me voy para Medellín
A                  E
En cada montaña dibujo trozos de ti
E                      B
Y si yo me voy para Bogota también allá
A                   E
Esa sabana bella de ti me hace recordar

PRE-CORO:
  E       Gm        Gbm              B
Y he recorrido el mundo entero y jamás
                 A                E
Te digo que he visto cosa más bella que tú mirar
E                     Gm            Gbm           B
Te digo que he visto la luna de noche hablar con el mar
               A             E
Pero jamás he visto cosa más bella que tu mirar

CORO:
          E                           B
Y es que son tus ojos tu sonrisa y tu boca
                      A                           E
Y tu carita de coqueta al final lo que me gusta a mi
   E                                     B
Y soy yo quien se pone siempre como un loco
                        A                                E
Cuando me miras poco a poco de la manera que me gusta a mí

INTRO

E                           B
Ayer hacia mucho, mucho pero mucho calor
              A                E
Y yo sentía frió porque no tenia todo tu amor
E                             B
Hoy en cambio hace frió y siento mucho calor
          A                   E
Porque estás tú de nuevo conmigo mi gran amor

PRE-CORO

CORO  (X2)
Suggest correction
Give kudos to tab author, rate the tab!
1 2 3 4 5
comments
print report bad tab
guest
You may want to rate the tab now too:
select rating
Wanna post a correction for this tab? Suggest correction