Oops, an error
Loading. Please wait.

No Creo En El Jamás Tab

version 2
version 2

Whole song

Interactive

32 views 1 this week
no commentswrite comment
1 2 3 4 5
3 more votes to show rating
add to favorites
launch autoscroll
font size
0
reset
how to read this tab
guitar tuner
Autoscroll
slow
fast
+/-
esc
set tempo
stop
Help us to improve Ultimate-Guitar.com Take our survey!
×
Este es el punteo que suena al principio de la canción.
El resto de la canción está en la otra transcripción que ya
mandaron.

E--12-12-12---12-12-12-12---11-11-11---11-11-11-11--|
B---------------------------------------------------|
G---------------------------------------------------|
D---------------------------------------------------|
A---------------------------------------------------|
E---------------------------------------------------|


E--9-9-9---9-9-9-9----------------------------------|
B--------------------12-12-12---12-12-12-12---------|
G---------------------------------------------------|
D---------------------------------------------------|
A---------------------------------------------------|
E---------------------------------------------------|

E----------------------------------------------|
B--10-9------10-9------12-10-9-----------------|
G-------11-9------11-9---------11-9-8----8-9---|
D-------------------------------------11-------|
A----------------------------------------------|
E----------------------------------------------|
Suggest correction
Give kudos to tab author, rate the tab!
1 2 3 4 5
comments
print report bad tab
guest
You may want to rate the tab now too:
select rating
Wanna post a correction for this tab? Suggest correction