Oops, an error
Loading. Please wait.

Podemos Hacernos Daño Tab

version 1
version 1

Whole song

by Juanes
81 views 1 this week
no commentswrite comment
1 2 3 4 5
3 more votes to show rating
add to favorites
launch autoscroll
font size
0
reset
how to read this tab
guitar tuner
×
Best way to learn
"Podemos Hacernos Daño"
Autoscroll
slow
fast
+/-
esc
set tempo
stop
me di cuenta que alan leonel romero habia hecho un tab pesimo
de esta cancion (hay muchos improvisados aqui en atame) en fin
decidi sacarlo para todos ustedes que les gusta juanes aqui
esta el solo 100% correcto, todas las notas son correctas
ni el mismo juanes lo tocaria mejor

NOTAS :

* en la parte 14bend(16*3)rel14
tienen q doblar la nota 14 hasta 16 tocar 3 veces manteniendolo en 16                             
y soltar hasta 14
* v = vibrato
* escuchen la cancion para guiarse jajaja
* solo para un principiante/intermedio

e/------7-10-8-7---------------------------------7-8-7--7-----7-8-10-12----/
b/----8----------10-8-7-------------------7-8-10------10-8-10-------------/
g/--9-------------------9-8--(9bend11)--9---------------------------------/
d/-----------------------------------------------------------------------/
a/---------------------------------------------------------------------/
E/----------------------------------------------------------------------/


e/----12-14-15-14h15p14p12----12-----------------------------------------------------/
b/-15----------------------15----15-12----12---------------------------------------/
g/-------------------------------------15----15-14-12----12-14-12-14-14bend(16*3)rel14-----/
d/----------------------------------------------------14---------------------------/
a/--------------------------------------------------------------------------------/
E/--------------------------------------------------------------------------------/


e/---------------------------------------------------------------------------------/
b/-----------------------------7-8-10-8h10p8p7---7---------------------------------/
g/-7-8-9v-7-8-9v-7-8-9v-7-8-9v-----------------9---(9bend11)-9-7-9v-----7-7-9-5----/
d/------------------------------------------------------------------9-9----9-9-7---/
a/---------------------------------------------------------------------------------/
E/--------------------------------------------------------------------------------/

bueno ahi tienen el solo disfrutenlo si quieren agregarme mi correo es
orlando158@ muy pronto sacare el solo de fijate bien 100% correcto jejeje
VIVA EL PERU CARAJO
Suggest correction
Give kudos to tab author, rate the tab!
1 2 3 4 5
comments
print report bad tab
guest
You may want to rate the tab now too:
select rating
Wanna post a correction for this tab? Suggest correction