Oops, an error
Loading. Please wait.

Podemos Hacernos Daño Tab

version 2
version 2

Whole song

36 views 1 this week
no commentswrite comment
1 2 3 4 5
3 more votes to show rating
add to favorites
launch autoscroll
font size
0
reset
how to read this tab
guitar tuner
×
Best way to learn
"Podemos Hacernos Daño"
Autoscroll
slow
fast
+/-
esc
set tempo
stop
Aqui les mando una recopilacion del solo de 'podemos  hacernos
daño' ya que tengo unos errores en el tab. anterior.
Tambien deben saber q en las estrofas se usan los acordes
Em Y D7.

AQUI VA EL SOLO:


e/------7-10-8-7-------------------------------------------------/
b/----8----------10-8-7-------------------------12-12-13-12-10-12/
g/--9-------------------9-8--(9bend11)--11-12-14-----------------/
d/---------------------------------------------------------------/
a/---------------------------------------------------------------/
E/---------------------------------------------------------------/

LIGADOS RAPIDOS:


e/----------------14-14-15-17-15-14--------------------------------/
b/--------13-15-17-----------------17-15---------------------------/
g/12-14-16-------------------------------16-14-12------------------/
d/------------------------------------------------16-14-12-16-14-12/
a/-----------------------------------------------------------------/
E/-----------------------------------------------------------------/


e/-------------------------------------------------------/
b/-12--------------12-------12-------12-------12-------12/
g/----14-12-(14bend16)--bend16---bend16---bend16---bend16/
d/-------------------------------------------------------/
a/-------------------------------------------------------/
E/-------------------------------------------------------/


e/------------------------------------------------------------------------/
b/------------------------------------------------10----------------------/
g/------------------------------------------11-12----12-11----------------/
d/12-13-14---12-13-14--12-13-14---12-13-14-----------------14-12-(14bend16)/
a/------------------------------------------------------------------------/
E/------------------------------------------------------------------------/


e/----------------------/
b/----------------------/
g/-9-7-9-9-7--7-9-------/
d/----------9--9--9-----/
a/------------------10-7/
E/----------------------/

CREO Q ASI SUENA MEJOR!!!!!!!!!!!!

SI ALGUIEN ME PODRIA AYUDAR CON EL SOLO FINAL DE 'FIJATE BIEN'
SE LO AGRADECERIA..........
CUALQUIER DUDA O COMENTARIO ESCRIBANME, Y NO SE LES OLVIDE TRATEN
A SUS GUITARRAS COMO SI FUESEN SUS NOVIAS!!!!!!!!!!!!!!!!!!!!!!!!!
Suggest correction
Give kudos to tab author, rate the tab!
1 2 3 4 5
comments
print report bad tab
guest
You may want to rate the tab now too:
select rating
Wanna post a correction for this tab? Suggest correction