Oops, an error
Loading. Please wait.

Podemos Hacernos Daño Tab

version 3
version 3

Whole song

58 views 3 this week
no commentswrite comment
1 2 3 4 5
3 more votes to show rating
add to favorites
launch autoscroll
font size
0
reset
how to read this tab
guitar tuner
Autoscroll
slow
fast
+/-
esc
set tempo
stop
Help us to improve Ultimate-Guitar.com Take our survey!
×
e--------7-10-8-7---------------------------------------------------
B------8----------10-8-7-------------------------12-13-12-10-12-----
G----9-------------------9-8-9/11-------11-12-14--------------------
D------------------------------------14-----------------------------
A-------------------------------------------------------------------
E-------------------------------------------------------------------

e----------------------------14-15-14----12----------------------------
B-------------13-15h17-15-17----------15----15-12----12----------------
G----12-14-16-------------------------------------15----15-14-12-------
D----------------------------------------------------------------14----
A----------------------------------------------------------------------
E----------------------------------------------------------------------

e------------------------------------
B------------------------------------
G----12-14-12-14-14/16-16-16-16-16---
D------------------------------------
A------------------------------------
E------------------------------------

e-------------------------------------------------
B-------------------------------------------------
G---12-13-14v--12-13-14v--12-13-14v--12-13-14v ---
D-------------------------------------------------
A-------------------------------------------------
E-------------------------------------------------


e--------------------------------------------------------------------------
B--------------------------------------------------------------------------
G----11-12-14-12-11----11--------------------------------------------------
D-------------------14----14/16----14-12-14----12----12----14--------------
A-------------------------------------------------14----14----14-----------
E----------------------------------------------------------------15-12-----

me parece que asi suena muy bien, si tienen alguna correción mandenla
a mi correo: alessander_3@
Suggest correction
Give kudos to tab author, rate the tab!
1 2 3 4 5
comments
print report bad tab
guest
You may want to rate the tab now too:
select rating
Wanna post a correction for this tab? Suggest correction