Oops, an error
Loading. Please wait.

¿qué Pasa Tab

version 1
version 1

Whole song

by Juanes
53 views 1 this week
no commentswrite comment
1 2 3 4 5
3 more votes to show rating
add to favorites
×
Save as Personal and add changes to this tab that will be seen only by you. Learn more ›
×
You can save this tab as Personal to edit and correct it or add notes. All changes will be seen only by you. Learn more »
save as personal
new!
launch autoscroll
font size
0
reset
how to read this tab
guitar tuner
Autoscroll
slow
fast
+/-
esc
set tempo
stop
Aquí está la tablatura de una de las
guitarras que participan en esta canción.
Un saludo muy especial a todos los Seniors
2005 y en especial a los del Granadino!!!

INTRO:

|-7------7------9----------9-----------|
|---10-----10-----9-7--------9-7-------|
|------9------9----------9-------------|
|---------------------11---------11----|
|--------------------------------------|
|--------------------------------------|

|---------------------------7-9-9h10---|
|-----7-9-10-9-7h9h7-7-9-10----------9-|
|-7-9----------------------------------|
|--------------------------------------|
|--------------------------------------|
|--------------------------------------|

|--------------------------------------|
|-7-9-7--------------------------------|
|-------9------------------------------|
|--------------------------------------|
|--------------------------------------|
|--------------------------------------|

ARPEGIO:

?Que será pregunto yo...?
|-7---------9--------------------------|
|---10---10---9-7----------------------|
|------9-------------9-9---------------|
|-----------------11-------------------|
|--------------------------------------|
|--------------------------------------| x4

?Por qué será que hay tanta guerra...?
|----10-------7------------------------|
|-10--------7----------9---------------|
|-------9-7----------9---------9-------|
|---------------11-9-----7-6-9---------|
|--------------------------------------|
|--------------------------------------|

Al final de la canción.
|-7---11-----------2--------------------|
|---7----11-9------4--------------------|
|-------------8-11-4--------------------|
|------------------4--------------------|
|------------------2--------------------|
|------------------2--------------------|

Arriba Once Caldas en Tokio!!!
Suggest correction
Give kudos to tab author, rate the tab!
1 2 3 4 5
comments
print report bad tab
guest
Wanna post a correction for this tab? Suggest correction