Oops, an error
Loading. Please wait.

¿qué Pasa Bass

by Juanes
32 views 3 this week
no commentswrite comment
1 2 3 4 5
3 more votes to show rating
add to favorites
launch autoscroll
font size
0
reset
guitar tuner
×
Best way to learn
"¿qué Pasa"
Autoscroll
slow
fast
+/-
esc
set tempo
stop
Hola amigos del átame, hay les dejo el bajo de esta buena canción.
Ojalá les guste resto, si encuentran algún error espero me lo puedan disculpar
pues hasta ahora estoy empezando a sacar bajos.


G|--------------|------------|-------------|
D|--------------|------------|-------------|
A|--------------|------------|-------------|
E|-5-5-4-2-2-4-5|-5-4-2-2-4-5|-5-4-2-2-4-5-|

G|---------------------------------|----------|
D|---------------------------------|----------|
A|---------------------------------|----------|
E|-5-4-2-2-4-10-10-9-7-7-5-4-4-2-0-|-0-0-2-4-5|

G|------------|------------|
D|------------|------------|
A|--3-5-------|--0-2-------|
E|-5----5-4-2-|-2----2-4-5-|... X 3...

G|-------------|------------|---------------------|
D|-------------|------------|---------------------|
A|--5-7--------|--2-4-------|--0-2----------------|
E|-7----10-9-7-|-4----7-5-4-|-2----4-2-0--0-0-2-4-|

  Esta parte va en el interludio...
G|----------------------|
D|----------------------|
A|-5/7?5?4--2-0---5/7/0-|
E|----------------------|

 Este es el coro
G|------------|------------|------------|-------------|
D|------------|------------|------------|-------------|
A|--3-5-------|--0-2-------|--3-5-------|--0-2--------|
E|-5----5-4-2-|-2----2-4-5-|-5----5-4-2-|-2-----2-4-5-|

G|-------------|------------|-----------------------|
D|-------------|------------|-----------------------|
A|--5-7--------|--2-4-------|--0-2------------------|
E|-7----10-9-7-|-4----7-5-4-|-2----4-2-0--0-0-2-4-5-|

 La parte del solo va con la melodía básica
G|------------|------------|-------------|
D|------------|------------|-------------|
A|------------|------------|-------------|
E|-5-4-2-2-4-5|-5-4-2-2-4-5|-5-4-2-2-4-5-|...


 Luego viene el segundo interludio...
G|------------------------|
D|------------------------|
A|-5/8-7?5?4--2-0---3/7/0-|
E|------------------------|

 La canción sube un tono en el segundo coro
G|------------|------------|------------|----------------|
D|------------|------------|------------|----------------|
A|--5-7-------|--2-4-------|--5-7-------|--5-7-5---7-6-4-|
E|-7----7-6-4-|-4----4-6-7-|-7----7-6-4-|-7------7-------|

G|---------------|------------|-----------------------|
D|---------------|------------|-----------------------|
A|--8-10---------|--5-7-------|--2-4------------------|
E|-10----12-11-9-|-7----9-7-6-|-4----6-4-2--2-2-4-6-7-|

G|------------|-----------|----------|
D|------------|-----------|----------|
A|--5-7-------|--5-7-5--7-|--5-7-5-7-|
E|-7----7-6-4-|-7------7--|-7-----7--|

G|------------|------------|
D|------------|------------|
A|--5-7-------|--2-4-------|
E|-7----7-6-4-|-4----4-6-7-|

G|---------------|------------|---------------------|
D|---------------|------------|---------------------|
A|--8-10---------|--5-7-------|--2-4----------------|
E|-10----12-11-9-|-7----9-7-6-|-4----6-4-2--2-2-4-6-|...

Listo, eso es todo, alguna duda o sugerencia
escríbamela a mi e-mail.

Bogotá, Colombia                   OJGP
Suggest correction
Give kudos to tab author, rate the tab!
1 2 3 4 5
comments
print report bad tab
guest
You may want to rate the tab now too:
select rating
Wanna post a correction for this tab? Suggest correction