Oops, an error
Loading. Please wait.

Soñador Tab

version 1
version 1

Whole song

27 views 1 this week
no commentswrite comment
1 2 3 4 5
3 more votes to show rating
add to favorites
launch autoscroll
font size
0
reset
how to read this tab
guitar tuner
×
Best way to learn
"Soñador"
Autoscroll
slow
fast
+/-
esc
set tempo
stop
Este tema de Juanes está más o menos fácil, 
pero de todas maneras requiere práctica.

-La canción lleva dos acordes al principìo:
 E y Dm

-Intro:
 
|----------------------------------------|
|----------------------------------------|
|----------------------------------------|
|-----6------4-----4------0------4-----4-|
|-5/7----7-5---5-5----2-2----2/5---5-5---|
|----------------------------------------|

-el Intro va 2 veces solo y luego se acompaña con esto-

|-------7-----------10-9-7-----7-------------|
|-9---9---10----10---------9-----10----10-10-|
|---9--------11--------------9------11-------|
|--------------------------------------------|
|--------------------------------------------|
|--------------------------------------------|

|-------7-----------10-7-----7-------------|
|-9---9---10----10-------9-----10----10-10-|
|---9--------11------------9------11-------|
|------------------------------------------|
|------------------------------------------|
|------------------------------------------|

-Versos:

Aquel que crea que tiene el mundo en sus manos
Que porque tiene mucho dinero
O porque tiene mucha belleza
Esta bien equivoca
Suggest correction
Give kudos to tab author, rate the tab!
1 2 3 4 5
comments
print report bad tab
guest
You may want to rate the tab now too:
select rating
Wanna post a correction for this tab? Suggest correction