Oops, an error
Loading. Please wait.

Tu Guardián Tab

version 1
version 1

Whole song

by Juanes
86 views 1 this week
no commentswrite comment
1 2 3 4 5
3 more votes to show rating
add to favorites
×
Save as Personal and add changes to this tab that will be seen only by you. Learn more ›
×
You can save this tab as Personal to edit and correct it or add notes. All changes will be seen only by you. Learn more »
save as personal
new!
launch autoscroll
font size
0
reset
how to read this tab
guitar tuner
Autoscroll
slow
fast
+/-
esc
set tempo
stop
Author
Unregistered
HOLA NO ES NECESARIO REPETIR LOS ACORDES YA LOS SABEN SON LOS
MISMOS QUE YA TRANSCRIBIERON.


SOLO

e---------------/-------------------/-----------------------------
B----------10---/-------------------/-----------------------------
G------9-12--12-/------9-12--9h10s9-/-10-9--10-9--10-9--10-9------
D-10-12---------/-10-12-------------/-----12----12----12----12----
A---------------/-------------------/-----------------------------
E---------------/-------------------/-----------------------------

e-----------------------------------------------------------------
B-----------------------------------------------------------------
G-12-10-9--12-10-9--12-10-9-12-10-9--12/17-16-14-12-9-------------
D-----------------------------------------------------12-10-------
A-----------------------------------------------------------------
E-----------------------------------------------------------------

e-----------------------------------------------------------------
B----------------------------10-----12-10--13-12-10-13/15-13------
G--12/14-12-10-9-10/12--10/12--12-10-----12-----------------------
D-----------------------------------------------------------------
A-----------------------------------------------------------------
E-----------------------------------------------------------------


GRACIAS A TODOS ESPERO QUE LES GUSTE ESTA BIEN FACIL
SALUDOS A MIS AMIGOS EN COLOMBIA EN ESPECIAL A WEND*
Suggest correction
Give kudos to tab author, rate the tab!
1 2 3 4 5
comments
print report bad tab
guest
Wanna post a correction for this tab? Suggest correction