Oops, an error
Loading. Please wait.

Tu Guardián Tab

version 2
version 2

Whole song

20 views 1 this week
no commentswrite comment
1 2 3 4 5
3 more votes to show rating
add to favorites
launch autoscroll
font size
0
reset
how to read this tab
guitar tuner
Autoscroll
slow
fast
+/-
esc
set tempo
stop
Help us to improve Ultimate-Guitar.com Take our survey!
×
ESTE ES UN MUY BUEN Y FACIL SOLO, ES MAS FACIL Q EL OTRO
Q HAN ENVIADO

e------------------------------------------------------
B------------------------------------------------------
G------9-12-14-12-----9-12-9h10p9v--10-9-7-10-9-7-10---
D-10-12----------10-12---------------------------------
A------------------------------------------------------
E------------------------------------------------------

e------------------------------------------------------
B------------------------------------------------------
G------------------------------------------------------
D-10-9-7-10-9-7-12-10-9-12-10-9-12-10-9-12-10-9--------
A------------------------------------------------------
E------------------------------------------------------

e-10/12-10-8-8-----------7h8-8p7-----------------------
B--------------8-----------------10---6h8-8-10-10p8----
G----------------10-9---------------9---------------10-
D---------------------10-------------------------------
A------------------------------------------------------
E------------------------------------------------------

e------------------------------------------------------
B-12-12p10----13-13p12----13h15-13v--------------------
G----------12----------14------------------------------
D------------------------------------------------------
A------------------------------------------------------
E------------------------------------------------------
Suggest correction
Give kudos to tab author, rate the tab!
1 2 3 4 5
comments
print report bad tab
guest
You may want to rate the tab now too:
select rating
Wanna post a correction for this tab? Suggest correction