Oops, an error
Loading. Please wait.

Tristes Mañanas Tab

4 views 3 this week
no commentswrite comment
1 2 3 4 5
3 more votes to show rating
add to favorites
launch autoscroll
font size
0
reset
how to read this tab
guitar tuner
Autoscroll
slow
fast
+/-
esc
set tempo
stop
Help us to improve Ultimate-Guitar.com Take our survey!
×
Esta es la versión que no va chiflada ay esta
toda pa´ que sientan el rigor..

Intro (2X)

   E5
E:-------------------------|
B:-9-12-9--9h10p9h10-------|
G:-------------------------|
D:-------------------------|
A;-------------------------|
E:-------------------------|
   C#5
E:-------------------------|
B:-9-12-9--9-9s7-----------|
G:-------------------------|
D:-------------------------|
A;-------------------------|
E:-------------------------|
   A5              B5
E:----------------------------|
B:-9-12-9--9-9-9-9-10-9-7-9-7-|
G:----------------------------|
D:----------------------------|
A;----------------------------|
E:----------------------------|

E5
Hoy Salí
               C#5
La mañana es triste y gris
              A5
Desde que no estas aquí
                B5
Tristes son mis mañanas
E5
No sabes
           C#5
Cuanto te extrañe esta vez
               A5
Yo ya te quisiera ver
                 B5
Y entregarte mi alma
C#5
Duele saber
           G#5
Que te perdí  de verdad
           A5
Que no te volveré a ver
 A5         B5   C#5
Ningún otra mañana

E5
La tarde
                G#5
se puso triste también
            A5
ya no lo puedo esconder
 A5             B5   C#5
se esta muriendo mi alma
E5
LA luna
        G#5
No me quiso relumbrar
                A5
Y el sol no me dio su luz
 A5           B5  C#5
Esta muriendo mi alma
G#5            C#5 C#5-B5
Y no trato de olvidarte
A5
Solo quiero
         B5
que regreses otra vez

Intro (2X)

   E5
E:-------------------------|
B:-9-12-9--9h10p9h10-------|
G:-------------------------|
D:-------------------------|
A;-------------------------|
E:-------------------------|
   C#5
E:-------------------------|
B:-9-12-9--9-9s7-----------|
G:-------------------------|
D:-------------------------|
A;-------------------------|
E:-------------------------|
   A5              B5
E:----------------------------|
B:-9-12-9--9-9-9-9-10-9-7-9-7-|
G:----------------------------|
D:----------------------------|
A;----------------------------|
E:----------------------------|


E5
Solo estoy
           C#5
Desde que perdí tu amor
          A5
El alcohol no me ayudo
          B5
Y me esta matando el corazón
E5
No sabes
            C#5
Cuanto te extrañe esta vez
           A5
Yo ya te quisiera ver
                B5
Y entregarte mi alma
C#5
Es tarde ya
          G#5
Para volver a empezar
             A5
Me dijiste la otra vez
A5               B5  C#5
Se esta muriendo mi alma
E5
Hoy también

       G#5
Un día mas de beber
            A5
Ya no lo puedo esconder
A5             B5   C#5
Esta muriendo mi alma
E5
La canción
        G#5
Solo recuerda el dolor
        A5
Es una mas de dolor
A5              B5  C#5
Que escribí esta mañana
G#5
Como hacer
          C#5 C#5 B5
Para olvidarte
A5
Si aun te tengo
        B5
Tan adentro de mi piel

   E5
E:-------------------------|
B:-9-12-9--9h10p9h10-------|
G:-------------------------|
D:-------------------------|
A;-------------------------|
E:-------------------------|
   C#5
E:-------------------------|
B:-9-12-9--9-9s7-----------|
G:-------------------------|
D:-------------------------|
A;-------------------------|
E:-------------------------|
   A5              B5           B5   Fin
E:----------------------------------|
B:-9-12-9--9-9-9-9-10-9-7-9-7---7s9-|
G:----------------------------------|
D:----------------------------------|
A;----------------------------------|
E:----------------------------------|


kamara espero que le entiendan un
saludo pa´ la banda  skate de chapingo.....
aguante JuaNoNeS
Suggest correction
Give kudos to tab author, rate the tab!
1 2 3 4 5
comments
print report bad tab
guest
You may want to rate the tab now too:
select rating
Wanna post a correction for this tab? Suggest correction