Oops, an error
Loading. Please wait.

Sería Feliz Tab

97 views 3 this week
no commentswrite comment
1 2 3 4 5
2 more votes to show rating
add to favorites
launch autoscroll
font size
0
reset
how to read this tab
guitar tuner
×
Best way to learn
"Sería Feliz"
Autoscroll
slow
fast
+/-
esc
set tempo
stop
(este va entre el coro)

e--7-7-7-8--7-7-7-8--7-7-7-8----------------------
b----------------------------7-7-7-10-------------
G-------------------------------------------------
D-------------------------------------------------
A-------------------------------------------------
E-------------------------------------------------


e--7-7-7-8--7-7-7-8--7-7-7-8----------------------
b----------------------------7-7-7-10-------------
G-------------------------------------------------
D-------------------------------------------------
A-------------------------------------------------
E-------------------------------------------------


(este al ultimo, casi acabando la cansion)


e-------------------------------------
b-------------------------------------
G------4-----4--5-4--4-7-5-4--4-7-5-4-
D----5-----5--------5--------7--------
A--7-----7----------------------------
E-------------------------------------

e-------------------------------------
b-------------------------------------
G------4-----4--5-4--4-7-5-4--4-7-5-4-
D----5-----5--------5--------7--------
A--7-----7----------------------------
E-------------------------------------

(Y se repite hasta que acaba la cansion)
A.S.M.L.
Suggest correction
Give kudos to tab author, rate the tab!
1 2 3 4 5
comments
print report bad tab
guest
You may want to rate the tab now too:
select rating
Wanna post a correction for this tab? Suggest correction