Oops, an error
Loading. Please wait.

Fé Verdadera Tab

50 views 1 this week
no commentswrite comment
1 2 3 4 5
3 more votes to show rating
add to favorites
launch autoscroll
font size
0
reset
how to read this tab
guitar tuner
Autoscroll
slow
fast
+/-
esc
set tempo
stop
Help us to improve Ultimate-Guitar.com Take our survey!
×
tono: Em


acordes intro:(b7,Em,B7,Em,E7,Am,D7,G,B7,Em)

E||--7-5-7-5-7-5-----7-5-7-5-----7-5-7-5-------
B||--------------7-4---------7-4---------8-7-8-
G||--------------------------------------------
D||--------------------------------------------
A||--------------------------------------------
E||--------------------------------------------

E||--7-5-7-5-7-5-----7-5-7-5-----7-5-7-5-------
B||--------------7-4---------7-4---------8-7-8-
G||--------------------------------------------
D||--------------------------------------------
A||--------------------------------------------
E||--------------------------------------------

E||-12-10-12-10-12-10------12-10-12-10------12-10-12-10----------
B||-------------------12-9-------------12-9-------------13-12-13-
G||--------------------------------------------------------------
D||--------------------------------------------------------------
A||--------------------------------------------------------------
E||--------------------------------------------------------------

E||-12-14-15-14-12-10-------10----10-11-------11----11-12-12-11-12--------
B||-------------------12-------12-------12-10----12----------------12-8---
G||----------------------12---------------------------------------------9-
D||-----------------------------------------------------------------------
A||-----------------------------------------------------------------------
E||-----------------------------------------------------------------------


         B7                            Em
Una fe verdadera, de un alama noble y pura
      D7      G        B7         Em
con intima ternura mi amor, te consagre
                 B7                   Em
te dije que era tuyo, te dije que te amaba
      D7          G        B7         Em
que solo en ti pensaba, y asi lo cumplire


                 D7                    G
Sera por que te quiero y te amo con pasion
    C           B7                Em
A dios en mi oracion imploro tu bondad
                 B7                      Em
Tu siendo mi esperanza, lo intimo de mi alma
 D7             G           B7     Em
Vigen aquien reclama mi corazon piedad


                      INTERLUDIO

          B7                               Em
E||--7-5-7-5-7-5-----7-5-7-5-----7-5-7-5-------
B||--------------7-4---------7-4---------8-7-8-
G||--------------------------------------------
D||--------------------------------------------
A||--------------------------------------------
E||--------------------------------------------

        B7                                 Em
E||--7-5-7-5-7-5-----7-5-7-5-----7-5-7-5-------
B||--------------7-4---------7-4---------8-7-8-
G||--------------------------------------------
D||--------------------------------------------
A||--------------------------------------------
E||--------------------------------------------

      E7                                                   Am
E||-12-10-12-10-12-10------12-10-12-10------12-10-12-10----------
B||-------------------12-9-------------12-9-------------13-12-13-
G||--------------------------------------------------------------
D||--------------------------------------------------------------
A||--------------------------------------------------------------
E||--------------------------------------------------------------

        D7                   G                     B7              Em
E||-12-14-15-14-12-10-------10----10-11-------11----11-12-12-11-12--------
B||-------------------12-------12-------12-10----12----------------12-8---
G||----------------------12---------------------------------------------9-
D||-----------------------------------------------------------------------
A||-----------------------------------------------------------------------
E||-----------------------------------------------------------------------

          B7                           Em
una fe verdadera, de un alama noble y pura
    D7        G        B7          Em
con intima ternura mi amor, te consagre
                 B7                   Em
te dije que era tuyo, te dije que te amaba
D7               G         B7       Em
que solo en ti pensaba, y asi lo cumplire


  D7                                  G
Sera por que te quiero y te amo con pasion
    C           B7                Em
A dios en mi oracion imploro tu bondad
                 B7                      Em
Tu siendo mi esperanza, lo intimo de mi alma
 D7              G         B7     Em
Vigen aquien reclama mi corazon piedad


                B7                       Em
Tu siendo mi esperanza, lo intimo de mi alma
 D7               G          B7      Em
virgen a quien reclama mi corazon piedad.


Saludos desde Venezuela, espero que les guste la cancion,
para cualquier correcion favor enviar al siguiente coreo: sdgr97@
Suggest correction
Give kudos to tab author, rate the tab!
1 2 3 4 5
comments
print report bad tab
guest
You may want to rate the tab now too:
select rating
Wanna post a correction for this tab? Suggest correction