Oops, an error
Loading. Please wait.

Felicitación Tab

85 views 1 this week
no commentswrite comment
1 2 3 4 5
3 more votes to show rating
add to favorites
launch autoscroll
font size
0
reset
how to read this tab
guitar tuner
×
Best way to learn
"Felicitación"
Autoscroll
slow
fast
+/-
esc
set tempo
stop
e----------------------9--------------9--------------10------------
b--10--11--10--11--10-----10--11--10-----10--11--10------10--------
g------------------------------------------------------------10----
d------------------------------------------------------------------

e-10--11--10--11--10--11--10--9--10--11--10--11--10--9--10--11--10-
b------------------------------------------------------------------
g------------------------------------------------------------------
d------------------------------------------------------------------

e-13--12--11------10------8-----6----------------------------------
b-------------11------10-----8--------10----8-----7-----6----------
g---------------------------------10------9----8-----7-------------
d-----------------------------------------------------------7--7--5

e-----------------9------12------15--14--15--14--15--14--15--14--15
b----------6--10-----10------10--17--16--17--16--17--16--17--16--17
g-------7---------------------------------------------------------
d----7------------------------------------------------------------
a-8---------------------------------------------------------------

e--13--10--10--11--10--11--10--11--10--9--10--11--10--11--10--9--10
b--15--12----------------------------------------------------------
g------------------------------------------------------------------

e--11--10--------------10--10--------------------------------------
b----------13--12--11----------13--13--11--11--10--9--10--11--10---
g------------------------------------------------------------------

e----------------------------------10--13--------------------------
b------------------10----------10----------------------------------
g--12--12--11--12------12--10--------------------------------------

        REm     LA7              REm
en el silencio de esta noche hermosa
          RE7                   SOLm
desde muy lejos vengo yo con mi cantar
              DO             FA 
recordando tu santo en mi memoria
      LA7                   REm  RE7
y que goces de mucha felicidad
     SOLm        DO           FA 
recordando tu santo en mi memoria
      LA7                   REm
y que goces de mucha felicidad
              DO7                FA
perdona amiga mia, perdona la impaciencia
                  DO7               FA
que venga a perturbar tu sueño tan profundo
     LA7                         REm
ya sonaron las campanas son las doce
  SIb           LA7                    REm
feliz un cumpleaños y un dichoso amanecer
     LA7                         REm
ya sonaron las campanas son las doce
  SIb           LA7                    REm
feliz un cumpleaños y un dichoso amanecer
Suggest correction
Give kudos to tab author, rate the tab!
1 2 3 4 5
comments
print report bad tab
guest
You may want to rate the tab now too:
select rating
Wanna post a correction for this tab? Suggest correction