Oops, an error
Loading. Please wait.

Niégalo Todo Tab

version 1
version 1

Whole song

106 views 3 this week
no commentswrite comment
1 2 3 4 5
3 more votes to show rating
add to favorites
launch autoscroll
font size
0
reset
how to read this tab
guitar tuner
×
Best way to learn
"Niégalo Todo"
Autoscroll
slow
fast
+/-
esc
set tempo
stop
este punteo lo tengo en Em, para q se pueda tocar en la guitarra..
espero q les guste

E-----------------------------------------------------------------8-
B-8---8-8---8--7---7-7---7--5---5-5---5--4-----------7-8-9-10---10--
G-9-9-9-9-9-9--7-7-7-7-7-7--5-5-5-5-5-5--4-4---7-8-9----------9-----
D---9-----9------7-----7------5-----5------4------------------------
A-------------------------------------------------------------------


E-12-12-12--12--------12--17-15-12----12-14-15-14-12-11-------------
B--------------13---13-------------12-------------------13-12-------
G-----------------14------------------------------------------14-11-
D-------------------------------------------------------------------


E-----------------------------12---
B--------------------12-13-15------
G-----------11-12-14---------------
D-13-14--14------------------------

Saludos a Ibarra  - Ecuador
Suggest correction
Give kudos to tab author, rate the tab!
1 2 3 4 5
comments
print report bad tab
guest
You may want to rate the tab now too:
select rating
Wanna post a correction for this tab? Suggest correction