Oops, an error
Loading. Please wait.

Niégalo Todo Tab

version 2
version 2

Whole song

86 views 1 this week
no commentswrite comment
1 2 3 4 5
3 more votes to show rating
add to favorites
launch autoscroll
font size
0
reset
how to read this tab
guitar tuner
×
Best way to learn
"Niégalo Todo"
Autoscroll
slow
fast
+/-
esc
set tempo
stop
Saludos de Venezuela!!!!

Acordes Intro: Fm-D#-C#-G#-Am#-Fm-C-Fm

E-13--13-13--13-11--11-11--11-9-9-9-9-8---
B---13-----13-----11-----11----9---9---9--
G-----------------------------------------
D-----------------------------------------


E-----------------------13-13-13------13-15-18-16-13-----13-15-16-15-13-12-
B-------8-9-10-11--13-13--------13--13-------------------------------------
G-7-9-10---------12---------------13---------------------------------------
D--------------------------------------------------------------------------
A--------------------------------------------------------------------------

E------------------------------------------13------8-
B-14-13-11------------------------------9-9-------9--
G---------13-12-10-----------------10-10--------10---
D-----------------------------10-10-----------10-----
A----------------------8-11-11-----------------------
E----------------------------------------------------


Fm               C
No le digas a nadie
           Fm
como te quiero

 C#                             C
hazle creer al mundo que no es asi
 A#m                              C
porque existe la envidia de tal manera
                                      Fm
que descrubir pudieran lo que hay en ti.
                      C               Fm
Niegalo y di que es odio lo que me tienes
F7                                A#m
que no has sentido nunca nada por mi
                                     C
que ni siquiera guardas de mi un retrato
                               Fm
y que jamas un beso de amor te di
A#m                                 C
que ni siquiera guardas de mi un retrato
                               Fm
y que jamas un beso de amor te di


  D#7                          G#
sabes que yo me muero por tu cariño
D#7                            G#
que doy hasta mi vida por tu querer
  C                              Fm
pero niegalo todo di que no es cierto
  C                                 Fm
para que nadie tronche lo que ha de ser
 C                                Fm
pero niegalo todo di que no es cierto
 C                                  Fm
para que nadie tronche lo que ha de ser

              INTERLUDIO

Fm-D#-C#-G#-A#m-Fm-C-Fm


E-13------13--13-11--11-11--11-9-9-9-9-8---
B-13-13-----13-----11-----11----9---9---9--
G------13----------------------------------
D------------------------------------------


E-----------------------13-13-13------13-15-18-16-13-----13-15-16-15-13-12-
B-------8-9-10-11--13-13--------13--13-------------------------------------
G-7-9-10---------12---------------13---------------------------------------
D--------------------------------------------------------------------------
A--------------------------------------------------------------------------

E------------------------------------------13--
B-14-13-11------------------------------9-9----
G---------13-12-10-----------------10-10-------
D-----------------------------10-10------------
A----------------------8-11-11-----------------
E----------------------------------------------


 D#7                            G#
sabes que yo me muero por tu cariño
 D#7                            G#
que doy hasta mi vida por tu querer
 C                               Fm
pero niegalo todo di que no es cierto
 C                                  Fm
para que nadie tronche lo que ha de ser
 C                               Fm
pero niegalo todo di que no es cierto
 C                                  Fm
para que nadie tronche lo que ha de ser.


Esta es mi primera canción subida. Espero que les guste.
Pronto subire mas.
Para cualquier corrección por favor escribirme a este
correo: sdgr97@
Saludos.
Suggest correction
Give kudos to tab author, rate the tab!
1 2 3 4 5
comments
print report bad tab
guest
You may want to rate the tab now too:
select rating
Wanna post a correction for this tab? Suggest correction