Oops, an error
Loading. Please wait.

Un Disco Más Tab

82 views 1 this week
no commentswrite comment
1 2 3 4 5
3 more votes to show rating
add to favorites
launch autoscroll
font size
0
reset
how to read this tab
guitar tuner
Autoscroll
slow
fast
+/-
esc
set tempo
stop
Help us to improve Ultimate-Guitar.com Take our survey!
×
1 --10---10-10-10-10-10-------10--------8-------8-7-8-7-8-7-10-8-7-------
2 ---------------------10---10--10----10-10--10------------------10-9----
3 ------------------------10-------10------9-----------------------------
4 -----------------------------------------------------------------------
5 -----------------------------------------------------------------------
6 -----------------------------------------------------------------------

1 --7--10--9---10---8/10/8------
2 --9--12--11--12---10----------
3 ------------------------------
4 ------------------------------
5 ------------------------------
6 ------------------------------


1 --10---10-10-10-10-10-------10--------8-------8-7-8-7-8-7-10-8-7-------
2 ---------------------10---10--10----10-10--10------------------10-9----
3 ------------------------10-------10------9-----------------------------
4 -----------------------------------------------------------------------
5 -----------------------------------------------------------------------
6 -----------------------------------------------------------------------

1 ---------------------------------10-
2 ----------9-9-----------------10----
3 10-9-7------10-9-7----------10------
4 -------10----------10-7-------------
5 ------------------------------------
6 ------------------------------------
Suggest correction
Give kudos to tab author, rate the tab!
1 2 3 4 5
comments
print report bad tab
guest
You may want to rate the tab now too:
select rating
Wanna post a correction for this tab? Suggest correction