Oops, an error
Loading. Please wait.

No Se Por Qué Tab

23 views 1 this week
no commentswrite comment
1 2 3 4 5
3 more votes to show rating
add to favorites
×
Save as Personal and add changes to this tab that will be seen only by you. Learn more ›
×
You can save this tab as Personal to edit and correct it or add notes. All changes will be seen only by you. Learn more »
save as personal
new!
launch autoscroll
font size
0
reset
how to read this tab
guitar tuner
Autoscroll
slow
fast
+/-
esc
set tempo
stop
Hola amigos esta es mi versión de esta canción
Tan bacana creo que así suena mucho mejor.


Intro

    D           A7            Bm
E|------2-----|-------0-----|-------------|-2-------|
B|------------|---------2---|-------3-----|---3-----|
G|----2-------|-----0-----0-|-----4---4---|-----4---|
D|--0-----0-2-|---2---------|---4-------4-|-------4-|
A|------------|-0-----------|-2-----------|---------|
E|------------|-------------|-------------|---------|

    D           A7            Bm
E|------2-----|-------0-----|-------------2-|
B|------------|---------2---|------------3--|
G|----2-------|-----0-----0-|-----4-----4---|
D|--0-----0-2-|---2---------|---4------4----|
A|------------|-0-----------|-2-------2-----|
E|------------|-------------|---------------|

D            A                Bm
Dices que serias mi amor si vistiera bien
        G        A           D
si tal vez, ese carro viejo fuera un mercedes benz
       G           A      D
que quizás si tan solo bailara trance
                    G
y no esta mierda de música
                 Gm
que me gusta cantar
                 D    Bm - D - Bm
que me gusta cantar

D                  A           Bm
Solo quise ser el agua para tu sed
                  G
pero el agua para ti mujer
               D
es mas y mas tener, solo tener


CORO
          G    F#7          Bm
No se por que, me besas con hambre
       G               F#7      Bm
y me arrancas de los labios la carne
                   G       F#7           Bm - C#m - D
lo que yo te puedo dar, es solo mi santa sangre
             G             A           D
y un poco de cariño cuando te sientas mal
               G       A       D
y un poco de cariño... hhhuuuuuu

SOLO

E|------7-------------------|----------------------------------|
B|--5/7---7-10---8/10-7-----|----------------------------------|
G|----------------------7-9-|-6/7-6---9-7------6/7-6---9-------|
D|--------------------------|-------7-----9-9--------7---7-9-9-|
A|--------------------------|----------------------------------|
E|--------------------------|----------------------------------|

E|------7-------------------|----------------------------------|
B|--5/7---7-10---8/10-7-----|----------------------------------|
G|----------------------7-9-|-6/7-6---9-7------6/7-6---9-------|
D|--------------------------|-------7-----9-9--------7---7-9-9-|
A|--------------------------|----------------------------------|
E|--------------------------|----------------------------------|

E|------------------------|
B|------------------------|
G|------------------------|
D|--9/11-9-7--------------|
A|------------------------|
E|------------------------|

ESTROFA 2

D          A              Bm            A              D
Quizás después de tanto andar si es imposible hoy confiar
           A            Bm       A
en alguien que te da la mano
          D          A     Bm
yo solo quise ser el agua para tu sed
                  G
pero el agua para ti mujer
             D
es mas y mas tener, solo tener


CORO

          G    F#7          Bm
No se por que, me besas con hambre
       G               F#7      Bm
y me arrancas de los labios la carne
                   G       F#7           Bm - C#m - D
lo que yo te puedo dar, es solo mi santa sangre
             G             A           D
y un poco de cariño cuando te sientas mal
             G             A           D
y un poco de cariño cuando te sientas mal


CORO FINAL

          G    F#7          Bm
No se por que, me besas con hambre
       G               F#7      Bm
y me arrancas de los labios la carne
                   G       F#7           Bm - C#m - D
lo que yo te puedo dar, es solo mi santa sangre
             G             A           D
y un poco de cariño cuando te sientas mal
             G             A           D
y un poco de cariño cuando te sientas mal
             G         A      D
y un poco de cariño... hhhuuuuuu


Bueno amigos espero que esta tab sea de su agrado,
y que viva el rock colombiano!
Suggest correction
Give kudos to tab author, rate the tab!
1 2 3 4 5
comments
print report bad tab
guest
Wanna post a correction for this tab? Suggest correction