Oops, an error
Loading. Please wait.

Disculpe Usted Tab

83 views 1 this week
no commentswrite comment
1 2 3 4 5
3 more votes to show rating
add to favorites
launch autoscroll
font size
0
reset
how to read this tab
guitar tuner
×
Best way to learn
"Disculpe Usted"
Autoscroll
slow
fast
+/-
esc
set tempo
stop
INTRO:
             G                 A          Fm                Bm
E|-----------------------------------------------------------------------|
A|-----------------------------------------------------------------------|
D|-----------------------------------------------------------------------|
G|-----------------------------------------------------------------------|
B|---3-3-------------------3-3-2--2-2-----------------3-2-2-3------------|
e|-------3-2-3-2-3-2-3-2-0------------2-0-2-0-2-0-2-0--------------------|


             Em              A          D    A       D
E|-----------------------------------------------------------------------|
A|-----------------------------------------------------------------------|
D|-------------------------------------------------------------------0---|
G|---------------------------2-------------------------------2---2-------|
B|---3-3---3---3---3---3-2-2------------3------------3-3-2-0---0---0-----|
e|-------0---0---0---0----------2-2-0-0----3-2-3-2-0---------------------|


D             A               D
 DISCULPE USTED NO QUIERO MOLESTARLO
          G
 ES NECESARIO DECIRLE UNAS PALABRAS
                     A                 D - Bm
 YO SE MUY BIEN QUE HOY CAMINA DE SU LADO
                    Em   A                D
 IGUAL QUE HACE UN AÑO ELLA LO HACIA CONMIGO.

                   A              D
 LE VOY A CONFESAR DEL MODO MAS AMABLE
                   G
 YO CREO INDISPENSABLE CONFIARLE ALGUNAS COSAS
                    A                  D   Bm
 NO QUIERO QUE LE PASE LO QUE PASO CONMIGO
                         Em   A                    D   D7
 Y QUE USTED PIERDA EL CIELO HOY QUE LO HA CONSEGUIDO.

            G                    A
 LE GUSTA MUCHO QUE LE LLEVEN SERENATA
            Fm                         Bm
 QUE LA DESPIERTEN CON UN BESO EN LAS MAÑANAS
           Em                     A
 QUE LE REGALEN UNA HERMOSA ROSA ROJA
         D              A              D   D7
 ESE DETALLE ES EL QUE MAS LA VUELVE LOCA.
              G                          A
 MAS NUNCA DUDE DE SU AMOR NO HA DE ESPERARSE
               Fm                       Bm
 ELLA ES MAS FIEL DE LO QUE PUEDA IMAGINARSE
             Em                       A
 QUE NUNCA CRUCE POR SU MENTE TRAICIONARLA
           D   A       D
 ESO MI AMIGO ESO LA MATA.


INTRO


                   A              D
 LE VOY A CONFESAR DEL MODO MAS AMABLE
                  G
 YO CREO INDISPENSABLE CONFIARLE ALGUNAS COSAS
                    A                  D   Bm
 NO QUIERO QUE LE PASE LO QUE PASO CONMIGO
                         Em   A                   D    D7
 Y QUE USTED PIERDA EL CIELO HOY QUE LO HA CONSEGUIDO.

           G                       A
 LE GUSTA MUCHO QUE LE LLEVEN SERENATA
            Fm                         Bm
 QUE LA DESPIERTEN CON UN BESO EN LAS MAÑANAS
           Em                     A
 QUE LE REGALEN UNA HERMOSA ROSA ROJA
         D              A              D   D7
 ESE DETALLE ES EL QUE MAS LA VUELVE LOCA.
             G                           A
 MAS NUNCA DUDE DE SU AMOR NO HA DE ESPERARSE
               Fm                       Bm
 ELLA ES MAS FIEL DE LO QUE PUEDA IMAGINARSE
             Em                       A
 QUE NUNCA CRUCE POR SU MENTE TRAICIONARLA
           D   A      D
 ESO MI AMIGO ESO LA MATA.
Suggest correction
Give kudos to tab author, rate the tab!
1 2 3 4 5
comments
print report bad tab
guest
You may want to rate the tab now too:
select rating
Wanna post a correction for this tab? Suggest correction