Oops, an error
Loading. Please wait.

Ni Lo Intentes Tab

117 views 1 this week
no commentswrite comment
1 2 3 4 5
3 more votes to show rating
add to favorites
launch autoscroll
font size
0
reset
how to read this tab
guitar tuner
×
Best way to learn
"Ni Lo Intentes"
Autoscroll
slow
fast
+/-
esc
set tempo
stop
INTRO

   C                 G                 Am      F       G7
e|-5-3-5-3--5-3-5-3-5-7-5-3--3-3-3-3-3-----------------5-3-|
B|-------------------------------------6-5-5-5---6-6-6-----|
G|---------------------------------------------5-----------|
D|---------------------------------------------------------|
A|---------------------------------------------------------|
E|---------------------------------------------------------|

C                      G
Me Sorprende Que Me Digas Esas Cosas
                   Am
Que Vaz A Poder Sacarme
       F           G
De Tu Mente Asi Nomas
           C                     G
Que No Entiendes Acaso Eres Caprichosa
                    Am
Nunca Mas Podras Dejarme
        F           G/G7
Aunque Sea Tu Voluntad

          F
Fijate Bien
        G          C
Se Que No Vaz A Negarme
         Am            Dm
Que Siempre Vaz A Acordarte
                    G/G7
De Lo Mucho Que Te Ame

            C
Ni Lo Intentes
                  G
Nunca Podras Olvidarme
                    Am
Mis Caricias No Se Borran
          F        G/G7
Ni Arrancandote La Piel

         C
Ni Lo Pienses
                    G
No Podras Jamas Curarte
                 Am
Todavia Me Necesitas
         F          G
Tienes Que Reconocer

            F
Ni Lo Intentes
        G             C
Porque Nadie Podra Amarte
        Am             Dm
No Hallaras En Otra Parte
           G7           C
Quien Este Siempre A Tus Pies.

PUENTE C G Am F G  -  F G C Am Dm G C

   C                 G                 Am      F       G7
e|-5-3-5-3--5-3-5-3-5-7-5-3--3-3-3-3-3-----------------5-3-|
B|-------------------------------------6-5-5-5---6-6-6-----|
G|---------------------------------------------5-----------|
D|---------------------------------------------------------|
A|---------------------------------------------------------|
E|---------------------------------------------------------|

             F       G         Am    Dm        G               C
e|-----------------------------------------------------------------|
B|---5-3-5-3---------6-6-6-8-5---5-3-5-3-3-5-3-5---3-------3-5-----|
G|-5---------5---5-5-----------5---------------------5-4-5-----5---|
D|-----------------------------------------------------------------|
A|-----------------------------------------------------------------|
E|-----------------------------------------------------------------|

          F
Fijate Bien
        G          C
Se Que No Vaz A Negarme
          Am             Dm
Que Siempre Vaz A Acordarte
                    G/G7
De Lo Mucho Que Te Ame

            C
Ni Lo Intentes
                  G
Nunca Podras Olvidarme
                    Am
Mis Caricias No Se Borran
          F        G/G7
Ni Arrancandote La Piel

         C
Ni Lo Pienses
                   G
No Podras Jamas Curarte
                  Am
Todavia Me Necesitas
         F          G
Tienes Que Reconocer

            F
Ni Lo Intentes
        G             C
Porque Nadie Podra Amarte
        Am             Dm
No Hallaras En Otra Parte
         G7           C
Quien Este Siempre A Tus Pies.

FIN X2

   C                 G                 Am      F       G7
e|-5-3-5-3--5-3-5-3-5-7-5-3--3-3-3-3-3-----------------5-3-|
B|-------------------------------------6-5-5-5---6-6-6-----|
G|---------------------------------------------5-----------|
D|---------------------------------------------------------|
A|---------------------------------------------------------|
E|---------------------------------------------------------|
Suggest correction
Give kudos to tab author, rate the tab!
1 2 3 4 5
comments
print report bad tab
guest
You may want to rate the tab now too:
select rating
Wanna post a correction for this tab? Suggest correction