Oops, an error
Loading. Please wait.

Terrenal Tab

518 views 1 this week
no commentswrite comment
1 2 3 4 5
2 more votes to show rating
add to favorites
launch autoscroll
font size
0
reset
how to read this tab
guitar tuner
×
Best way to learn
"Terrenal"
Autoscroll
slow
fast
+/-
esc
set tempo
stop
amigos pues aqui les dejo el intro que tocan en acordeon,
ademas para que no anden cambiando de pestaña decidi pegar
la cancion y acordes de nuestro amigo [jalz0091] ya que
creo que es la version que mas se ajusta a la original
(aclaro: sin afan de querer fusilarme la transripcion de
dicho colaborador, solo lo pongo por ser mas practico)


e|----7-7-7-7--8-10------------------------------|
b|------------------10s--10-10-12-13-------------|
g|-7--7-7-7-7--9-11------------------------------|

e|-7--7-7-3-7--8/10-12-10--8---------------------|
b|-8--8-8-5-8-10/12-13-12-10---------------------|
g|-----------------------------------------------|

e|---10-10-10-10-12-12/14-14-8-------------------|
b|---12-12-12-12-13-13/15-15-10------------------|
g|-7---------------------------------------------|

e|--8--8--10-12-7-7-7-3-7--8/10-12-­10-8--10-8--7-|
b|--10-10-12-13-8-8-8-5-8-10/12-13-12­-10-12-10-8-|
g|-----------------------------------------------|

e|--------------------------------------­---------|
b|-8-8-10-10/12-12-12-14-14/15-15----------------|
g|--------------------------------------­---------|


G                  Am
Si pudiera ser tu cama
D                  G
O la funda de tu almohada
Em                 C
Ser el agua que te moja
            Am
O la toalla que te abraza
    D
Y secar tu piel mojada.


D                   Am
Si pudiera ser la sombra
D                  G
Y seguirte a donde vayas
Em                 C
Ser el aire que respiras
             Am
El espejo a donde a diario
    D
Te maquillas.


          C                  Am
Pero solo soy un simple terrenal
             Em
Que vive alucinando
          C                         Am
Eso de llamarte por las noches y colgar
      D
Se me sigue dando.

          C                  Am
Pero solo soy un simple terrenal
                Em
Que sueña con tenerte
              C                         B7
Mientras viva yo no quito el dedo del renglón
                Em   C  G
Para tu buena suerte.e..e


Solo Acordeón: C Am Em  C  B7 Em


Em                 Am
Si pudiera ser la ropa
D                  G
Que te viste y que te toca
Em                 C
Ser el cauce de tu río
            Am
El sueño más erótico
    D
Y prohibido.


          C                  Am
Pero solo soy un simple terrenal
             Em
Que vive alucinando
          C                         Am
Eso de llamarte por las noches y colgar
      D
Se me sigue dando.

          C                  Am
Pero solo soy un simple terrenal
                Em
Que sueña con tenerte
              C                         B7
Mientras viva yo no quito el dedo del renglón
                Em   C  G
Para tu buena suerte
Suggest correction
Give kudos to tab author, rate the tab!
1 2 3 4 5
comments
print report bad tab
guest
You may want to rate the tab now too:
select rating
Wanna post a correction for this tab? Suggest correction