Oops, an error
Loading. Please wait.

Aquí Tab

version 2
version 2

Whole song

Interactive

by Jumbo
14 views 1 this week
no commentswrite comment
1 2 3 4 5
3 more votes to show rating
add to favorites
launch autoscroll
font size
0
reset
how to read this tab
guitar tuner
×
Best way to learn
"Aquí"
Autoscroll
slow
fast
+/-
esc
set tempo
stop
De esta cancion las transcripciones que habia no tienen el intro ni la figura que se usa al final de cada verso,
por eso les mando esta. Escuchen la cancion y le van a agarrar el ritmo.

Tono : D A D G B E         Tipo de compás: 4/4
Intro                                                            
Guitarra 1 limpia
 |               |               |               |                |               |               |               |                
|----------------------------------------------------------------|----------------------------------------------------------------|
|----------------------------------------------------------------|----------------------------------------------------------------|
|----------------------------------------------------------------|----------------------------------------------------------------|
|----------------------------------------------------------------|----------------------------------------------------------------|
|--------------------------------------------------------5/------|9-------9-------9---9-----------9---9---9---10--10--10--10--10--|
|--------------------------------------------------------0-------|----------------------------------------------------------------|

 
                                                                  Fig. 1..........................................................
 |               |               |               |                |               |               |               |                
|----------------------------------------------------------------|----------------------------------------------------------------|
|----------------------------------------------------------------|----------------------------------------------------------------|
|----------------------------------------------------------------|----------------------------------------------------------------|
|----------------------------------------------------------------|----------------------------------------------------------------|
|9-------9-------9---9-----------9---9---9---10--10--10--10--10--|9-------9-------9---9-----------9---9---9---10--10--10--10--10--|
|----------------------------------------------------------------|----------------------------------------------------------------| 
                                                                  Ya no amas...

Verso 1 con Fig. 1

Coro
Guitarra 1 y 2 (Con dist.)
 |               |               |               |                
|----------------------------------------------------------------|
|----------------------------------------------------------------|
|----------------------------------------------------------------|
|0---0---0---0---4---4---4---4---5---5---5---5---9---9---9---9---|
|0---0---0---0---4---4---4---4---5---5---5---5---9---9---9---9---|
|0---0---0---0---4---4---4---4---5---5---5---5---9---9---9---9---| 

 |               |               |               |                |               |               |               |                
|----------------------------------------------------------------|----------------------------------------------------------------|
|----------------------------------------------------------------|----------------------------------------------------------------|
|----------------------------------------------------------------|----------------------------------------------------------------|
|0---0---0---0---4---4---4---4---5---5---5---5---9---9---9---9---|0---0---0---0---0---0---0---0---4---4---4---4---5---5---5---5---|
|0---0---0---0---4---4---4---4---5---5---5---5---9---9---9---9---|0---0---0---0---0---0---0---0---4---4---4---4---5---5---5---5---|
|0---0---0---0---4---4---4---4---5---5---5---5---9---9---9---9---|0---0---0---0---0---0---0---0---4---4---4---4---5---5---5---5---| 

 |               |               |               |                                
|----------------------------------------------------------------|
|----------------------------------------------------------------|
|----------------------------------------------------------------|
|0---0---0---0---0---0---0---0---4---4---4---4---5---5---5---5---|
|0---0---0---0---0---0---0---0---4---4---4---4---5---5---5---5---|
|0---0---0---0---0---0---0---0---4---4---4---4---5---5---5---5---|


Este es el final del 1er y 3er coro................................................Se deja sonar la guitarra 2 y se retroalimenta
 |               |               |               |                |               |               |               |                
|----------------------------------------------------------------|----------------------------------------------------------------|
|----------------------------------------------------------------|----------------------------------------------------------------|
|----------------------------------------------------------------|----------------------------------------------------------------|
|5-----------5-----------5-----------5-----------5-----------5---|5---5-----------0-----------------------------------------------|
|5-----------5-----------5-----------5-----------5-----------5---|5---5-----------0-----------------------------------------------|
|5-----------5-----------5-----------5-----------5-----------5---|5---5-----------0-----------------------------------------------| 


Guitarra 1 limpia                                                         
 |               |               |               |                
|----------------------------------------------------------------|
|----------------------------------------------------------------|
|--------------------------------------------------------2/------|
|--------------------------------------------------------0-------|
|----------------------------------------------------------------|
|----------------------------------------------------------------|

 Fig. 2
 |               |               |               |                |               |               |               |                
|----------------------------------------------------------------|----------------------------------------------------------------|
|----------------------------------------------------------------|----------------------------------------------------------------|
|11------11------11--11----------4-------4-------2-------2---2/--|11------11------11--11----------4-------4-------2-------2---2---|
|0-------0-------0---0-----------0-------0-------0-------0---0---|0-------0-------0---0-----------0-------0-------0-------0---0---|
|----------------------------------------------------------------|----------------------------------------------------------------|
|----------------------------------------------------------------|----------------------------------------------------------------| 

                                                  Termina fig. 2
 |               |               |               |                                
|----------------------------------------------------------------|
|----------------------------------------------------------------|
|11------11------11--11----------4-------4-------2-------2---2/--|
|0-------0-------0---0-----------0-------0-------0-------0---0---|
|----------------------------------------------------------------|
|----------------------------------------------------------------| 

Pasa al 2o. verso con fig. 1
Se toca el segundo coro y pasa al interludio

Este es el final del 2o coro                                      Interludio
Guitarras 1 y 2 (con dist.)
 |               |               |               |                |               |               |               |                
|----------------------------------------------------------------|-----------------------------------------------------------------|
|----------------------------------------------------------------|-----------------------------------------------------------------|
|----------------------------------------------------------------|°----------------------------------------------------------------|
|5-----------5-----------5-----------5-----------5-----------5---|-5---5---7-------7---7---7---7---7---5-------5---5---5---5---5---|
|5-----------5-----------5-----------5-----------5-----------5---|°5---5---7-------7---7---7---7---7---5-------5---5---5---5---5---|
|5-----------5-----------5-----------5-----------5-----------5---|-5---5---7-------7---7---7---7---7---5-------5---5---5---5---5---| 
                                                                                              Estoy vivo__...
 |               |               |               |                                
|----------------------------------------------------------------|
|----------------------------------------------------------------|
|---------------------------------------------------------------°|
|5---0-------0---5-------5---5---5---0-----------0---5-------5---|
|5---0-------0---5-------5---5---5---0-----------0---5-------5--°|
|5---0-------0---5-------5---5---5---0-----------0---5-------5---| 

Se toca el interludio y pasa al tercer coro
Se toca la fig.2 (7 veces) y luego se toca esto: 

Guitarra 1 limpia
 |               |               |               |                |               |               |               |                
|----------------------------------------------------------------|----------------------------------------------------------------|
|----------------------------------------------------------------|----------------------------------------------------------------|
|11h-----12------11/-----9-------9h------11------9h------11------|11--------------------------------------------------------------|
|0---------------0---------------0---------------0---------------|0---------------------------------------------------------------|
|----------------------------------------------------------------|----------------------------------------------------------------|
|----------------------------------------------------------------|----------------------------------------------------------------| 

 |               |               |               |                
|----------------------------------------------------------------|
|0---------------------------------------------------------------|
|0---------------------------------------------------------------|
|----------------------------------------------------------------|
|----------------------------------------------------------------|
|----------------------------------------------------------------| 

La letra no la pongo por que esta facil
Comentarios, dudas y sugerencias a: andles@
Suggest correction
Give kudos to tab author, rate the tab!
1 2 3 4 5
comments
print report bad tab
guest
You may want to rate the tab now too:
select rating
Wanna post a correction for this tab? Suggest correction