Oops, an error
Loading. Please wait.

Aquí Bass

version 1
version 1

Whole song

Interactive

by Jumbo
47 views 1 this week
no commentswrite comment
1 2 3 4 5
3 more votes to show rating
add to favorites
×
Save as Personal and add changes to this tab that will be seen only by you. Learn more ›
×
You can save this tab as Personal to edit and correct it or add notes. All changes will be seen only by you. Learn more »
save as personal
new!
launch autoscroll
font size
0
reset
guitar tuner
Autoscroll
slow
fast
+/-
esc
set tempo
stop
jumbo - aki

Intro (silencio)
Verso 1 (silencio)

Verso 2
(y me pongo a pensar...)
                     X3
|---6/7/6------|---6-6/7/6-----|
|-0-------4-5--|-0---------4-5-|
|--------------|---------------|
|--------------|---------------|

Coro
|----------------------------------|
|---------4-4-4-4-5-5-5-5----------|
|-5-5-5-5-----------------5-5-5-5--|
|----------------------------------|

|--------------------------|
|---------4-4-4-4-5-5-5-5--|
|-5-5-5-5------------------|
|--------------------------|

|----------------------------------|
|---------4-4-4-4-5-5-5-5----------|
|-5-5-5-5-----------------5-5-5-5--|
|----------------------------------|

|---------------------------------------------|
|---------4-4-4-4--5--5--5--5--5--5--5-5-5----|
|-5-5-5-5-----------------------------------5-|
|---------------------------------------------|

Verso 3 (silencio)
Verso 4 (esta ciudad...)
                     X7
|---6/7/6------|---6-6/7/6-----|
|-0-------4-5--|-0---------4-5-|
|--------------|---------------|
|--------------|---------------|

Coro
|----------------------------------|
|---------4-4-4-4-5-5-5-5----------|
|-5-5-5-5-----------------5-5-5-5--|
|----------------------------------|

|--------------------------|
|---------4-4-4-4-5-5-5-5--|
|-5-5-5-5------------------|
|--------------------------|

|----------------------------------|
|---------4-4-4-4-5-5-5-5----------|
|-5-5-5-5-----------------5-5-5-5--|
|----------------------------------|

|-------------------------------------------
|---------4-4-4-4--5--5--5--5--5--5--5-5-5--
|-5-5-5-5-----------------------------------  ...
|-------------------------------------------

Pre coro
    --------------------------------------------------------|
    -7-7-7-7-7-7-7---5-5-5-5-5-5------4-4/5/4------4-4/5/4--|
... -----------------------------5--5---------5--5----------| X2
    --------------------------------------------------------|

|-------------------------------|
|-7-7-7-7-7-7-7---5-5-5-5-5-5---|
|-------------------------------|
|-------------------------------|

Coro FINAL
|----------------------------------|
|---------4-4-4-4-5-5-5-5----------|
|-5-5-5-5-----------------5-5-5-5--|
|----------------------------------|

|--------------------------|
|---------4-4-4-4-5-5-5-5--|
|-5-5-5-5------------------|
|--------------------------|

|----------------------------------|
|---------4-4-4-4-5-5-5-5----------|
|-5-5-5-5-----------------5-5-5-5--|
|----------------------------------|

|---------------------------------------------|
|---------4-4-4-4--5--5--5--5--5--5--5-5-5----|
|-5-5-5-5-----------------------------------5-|
|---------------------------------------------|

Final (lira)
Suggest correction
Give kudos to tab author, rate the tab!
1 2 3 4 5
comments
print report bad tab
guest
Wanna post a correction for this tab? Suggest correction