Oops, an error
Loading. Please wait.

Aquí Bass Tab

version 2
version 2

Whole song

Interactive

14 views 1 this week
no commentswrite comment
1 2 3 4 5
3 more votes to show rating
add to favorites
launch autoscroll
font size
0
reset
guitar tuner
×
Best way to learn
"Aquí"
Autoscroll
slow
fast
+/-
esc
set tempo
stop
La transcripcion que hay der la cancion es una cagada.
por favor pongan la mia.
Quiero aclarar que erick 'chingon' llamas en un pobre 
pendejete que ni siquiera puede transcribir bien una cancion.

Bueno, si tienen la mas minima nocion de o que es
tocar el bajo, encontraran esta cancion facil y divertida.

En fin. Necesitan afinar un tono abajo, DROP D.
Tambien necesitan un pedal de overdrive
preferenemente. Yo uso los controles en la mitad
 de mezcla, todo el overdrive en un bajo de jazz.

a---junto auna cuerda significa harmonico
h---- hammer
m-----mute. MArcar la nota y soltarla.


y me pongo a pensar...............que salgo de
G--------------------------------------------------------
D-------12-11-h12--11------------------------------------
A----a12---------------9-9-9-9-10-10-10-10--a12----------
D--------------------------------------------------------

Aqui

G--------------------------------------------------------
D--------------------------------------------------------
A--5-5-5-------------------------5-5-5-5-----------------
D--------4-4-4-4-5-5-5-5-0-0-0-0--------4-4-4-4-5-5-5-5--

Estoy vivo....

G------------------------------------------------------------
D------------------------------------------------------------
A------------------------------------------------------------
D-7-7-7-7-7-7-7--5--5-5-5-5-5-5-0--0-4--4-5-4-0--0-4--4-5-4-0

Estoy vivo y sigo aqui.

G--------------------------------------------------------------
D-------------------------------------------------------------
A--------------------------------5-5-5-5---------5-5-5-5-------
D-7-7-7-7-7-7-7-5-5-5-5-5-5-5-5----------4-4-4-4--------4-4-4-4

Para salir de los coros (aqui) y terminar la cancion, se 
toca lo siguiente La ultima nota se deja para que se sostenga
hasta que se apague. Las notas previas se siguen con El 
sonido de la cancion.


G--------------------------------------------------------
D--------------------------------------------------------
A-5-5-5-----------------------------------------------------
D-------4-4-4-4-0-5m-5m-5m-5m-5m-5m-5-5-5-0--------------

se repite el coro
Suggest correction
Give kudos to tab author, rate the tab!
1 2 3 4 5
comments
print report bad tab
guest
You may want to rate the tab now too:
select rating
Wanna post a correction for this tab? Suggest correction