Oops, an error
Loading. Please wait.

Aquí Bass Tab

version 3
version 3

Whole song

Interactive

17 views 1 this week
no commentswrite comment
1 2 3 4 5
3 more votes to show rating
add to favorites
launch autoscroll
font size
0
reset
guitar tuner
×
Best way to learn
"Aquí"
Autoscroll
slow
fast
+/-
esc
set tempo
stop
hola!!!!!!!!!!! es mi segunda tab, y eso es chido,
Ah y esta muy chida esta rola, aparte que la banda me late un buen.

SALUDOS A: PACO,LUIS DANIEL,LUIS MIGUEL,JAIME,ORNELAS,ANDRESHH.


VERSO
....... y me pongo a pensar que tu y yo va a acabar
y sería mejor....

G-7h97-----------------------
D-------49-555----------------
A-----------------------------
E-----------------------------

CORO

Y POR UN SEGUNDO PUEDO VER QUE SALGO DE AQUI...

G---------------------------------------
D----------------------------------------
A-55--------------55---------55----------
E-----222-333-555----222-333--222-333-555

G------------------------------------
D------------------------------------
A-55------------------------3--------
E----222,-3,3,3,3,3,3,33-22---555555-

INTERLUDE

ESTOY VIVO......
G-----------------------------
D-----------------------------
A-----------------3353----3353
E-5555-3333333--3------33-----
Suggest correction
Give kudos to tab author, rate the tab!
1 2 3 4 5
comments
print report bad tab
guest
You may want to rate the tab now too:
select rating
Wanna post a correction for this tab? Suggest correction