Oops, an error
Loading. Please wait.

Automático Tab

by Jumbo
41 views 3 this week
no commentswrite comment
1 2 3 4 5
3 more votes to show rating
add to favorites
launch autoscroll
font size
0
reset
how to read this tab
guitar tuner
Autoscroll
slow
fast
+/-
esc
set tempo
stop
pss aca está la tabla de automatico una rola muy prendida
y está cagada de risa en la lira aca se las dejo mi primera
aportacion pa' esta pagina... ;) saludos

E--|-----------------------------------------------------8--------------13
B--|-------------------------------------------------0/8---8--------------
G--|-------------------------4/7-------------------------------0/11-12----
D--|--------5--------------------3/5---------- 0--------------------------
A--|----3--------3--------------------3/5------0--------------------------
D--|-0----------------0---3--------------------0--------------------------

E--|----------------------------------------------------------------------
B--|----------------------------------------------------------------------
G--|---6/7----------------------------------------------------------------
D--|---6/7--------------3/2--0-------0-0------0--0--------------3-3---3-3-
A--|---4/5--------------3/2--0-------0-0------0--0--------------3-3---3-3-
D--|----------0--0------3/2--0-------0-0------0--0--------------3-3---3-3-

E--|----------------------------------------------------------------------
B--|----------------------------------------------------------------------
G--|---6/7-----------------------------------6/7--------------------------
D--|---6/7-----------3/2--0----------------- 6/7-------- 3/2--------------
A--|---4/5-----------3/2--0-----------5------4/5---------3/2--------5-----
D--|---------0--0----3/2--0----0-3--5-------------0--0---3/2--0-3-5---5-3-

esas son todas las notas está en Dropped "D"
cualquier duda o aclaracion
haganmela saber ;) "red_big_skull0073@ chau!
Suggest correction
Give kudos to tab author, rate the tab!
1 2 3 4 5
comments
print report bad tab
guest
Wanna post a correction for this tab? Suggest correction