Oops, an error
Loading. Please wait.

Cámara Lenta Tab

version 2
version 2

Whole song

65 views 1 this week
no commentswrite comment
1 2 3 4 5
3 more votes to show rating
add to favorites
launch autoscroll
font size
0
reset
how to read this tab
guitar tuner
×
Best way to learn
"Cámara Lenta"
Autoscroll
slow
fast
+/-
esc
set tempo
stop
Bueno pues no soy gran fan de Jumbo pero mis respetos para esta canción
que está muy chida. Aunque me tomó como unas tres horas sacarla,
a mi parecer es muy cercana a la original, claro a excepción del precoro
que no le hallé. Sí, sé que es similar a la otra tab ¬¬ ...
pero créanme que está yo la saqué.

h: hammer on
s: slide
b: bend (hacia abajo)
B: bend (hacia arriba)
v: vibrato

_____
Intro

Guitarra 1
e|-----------------------------------------|
B|-----------------------------------------|
G|-----------------------------------------| Se repite hasta que
D|---5-5-5-5-4-4-4-4-5-5-5-5-5-4-4-4-7-----| termine la 2ª guitarra.
A|-----------------------------------------|
E|-----------------------------------------|

Guitarra 2
e|------------------------------------------------|
B|------------------------5-3-5-s-7-7-7-s-5-------|
G|-6h7-7---4s7-7---6h7-7--------------------7-7---|
D|------------------------------------------------|
A|------------------------------------------------|
E|------------------------------------------------|

e|---------------------------------------------|
B|---------------------7b-6b-5-----------------| Las cuerdas que
G|---6h7-7--4s7-7--6s7---------7---------------| llevan la ?b?
D|---------------------------------------------| nada mas es un
A|---------------------------------------------| ligero bend.
E|---------------------------------------------|


_______
Verso 1

Se escucha bajo y batería y justo cuando termina de decir
?...escucho una voz en mi mente y solo dice: Ajá...?
entra la guitarra:

Guitarra 1
e|-----------------------------------------------------|
B|-----------------------------------------------------|
G|---4s5--4-5-4--4s5--5s4--4s5--4-5-4--4s5-------------|
D|-----------------------------------------------------|
A|-----------------------------------------------------|
E|-----------------------------------------------------|


____
Coro

Justo después del precoro... ¬¬

Guitarra 1
e|---------------------------------------|
B|---------------------------------------| Se repite durante todo el coro
G|---------------------------------------| hasta terminar la 2ª guitarra,
D|---5-5-5-5-4-4-4-4-5-5-5-5-5-4-4-4-7---| de ahí se toca dos veces más.
A|---------------------------------------|
E|---------------------------------------|

Guitarra 2
e|--------2--------2--------2--------------|
B|--2s3------2s3------2s3-----2s3----------| *Ojo donde termina, hacen una
G|------4--------4--------4-------4*-------|  ligera pausa y repiten.
D|-----------------------------------------|
A|-----------------------------------------|
E|-----------------------------------------|X2


_______
Verso 2

Entra después de ?...tengo miedo y puedo sonreir...?

Guitarra 1
e|-----------------------------------------------------|
B|-----------------------------------------------------|
G|---4s5--4-5-4--4s5--5s4--4s5--4-5-4--4s5-------------|
D|-----------------------------------------------------|
A|-----------------------------------------------------|
E|-----------------------------------------------------|


____
Coro


______
Puente

      ... Vamos a 10...    ... Vamos a 20...
e|------7----------------7------------------7----------|
B|--6-7---7-6--------6-7---7-6----------6-7---7-6------|
G|-----------------------------------------------------|
D|-----------------------------------------------------|
A|-----------------------------------------------------|
E|-----------------------------------------------------|


... Vamos a 30...     ... En cámara lenta...
e|------------------------------------------------|
B|----------3-s-5--5-s-3-----------3-s-5--5-s-3---|
G|------------------------------------------------|
D|------------------------------------------------|
A|------------------------------------------------|
E|------------------------------------------------|


 ... 50... 60... a 100... 110... 1000 000... Ajá... Oyeah... Ajá.
e|----------------------------------|
B|----------------------------------| Esta parte se repite y solo se
G|--9s11-11-11-s-9-7--7-------------| va acelerando hasta llegar al
D|------------------9---------------| último ?Ajá? ahí el
A|----------------------------------| 7 se toca varias veces.
E|----------------------------------|


____
Coro

Guitarra 1
e|--------------------------------------|
B|--------------------------------------|
G|--------------------------------------| Se repite durante todo el coro
D|---5-5-5-5-4-4-4-4-5-5-5-5-5-4-4-4-7--| hasta terminar la 2ª guitarra.
A|--------------------------------------|
E|--------------------------------------|

Guitarra 2
e|--------2--------2--------2--------------|
B|--2s3------2s3------2s3-----2s3----------|
G|------4--------4--------4-------4*-------|
D|-----------------------------------------|
A|-----------------------------------------|
E|-----------------------------------------|X4


_____
Outro

e|-----------------------------|
B|---9s11-11-9s11-11-10s11-----| Se repite rápidamente,
G|-----------------------------| y en la última vez el 11
D|-----------------------------| lo tocan como un 11B con vibrato.
A|-----------------------------|
E|-----------------------------|


Y bueno eso es todo, como dije falta el precoro pero
no me fue posible sacarlo. En fin, dudas, comentarios,
sugerencias, mentadas, etc. favor de
enviarlas a antoniovg@
Suggest correction
Give kudos to tab author, rate the tab!
1 2 3 4 5
comments
print report bad tab
guest
You may want to rate the tab now too:
select rating
Wanna post a correction for this tab? Suggest correction