Oops, an error
Loading. Please wait.

Caminando Hacia Atrás Tab

by Jumbo
35 views 1 this week
no commentswrite comment
1 2 3 4 5
3 more votes to show rating
add to favorites
launch autoscroll
font size
0
reset
how to read this tab
guitar tuner
×
Best way to learn
"Caminando Hacia Atrás"
Autoscroll
slow
fast
+/-
esc
set tempo
stop
Gran panoramico


Intro
Guitarra 2

E-----9-----------12/10-------------------------------------
B---10-10-----8/10-----12/10--12/14-12--12------------------
G--9------9/11------------------------14--14/11-11-14-------
D-----------------------------------------------------------
A-----------------------------------------------------------
E-----------------------------------------------------------

/////////////////////////////////////////////////////////////

Guitarra 2(riff)
   A      D  <------------------------LA guitarra 1 lleva los acordes
E-----9-----------12/10--------------
B---10-10-----8/10-----12/10---------
G--9------9/11-----------------------
D------------------------------------ X 2
A------------------------------------
E------------------------------------


   A      D                   A           D
E-----9-----------12/10-------------------------------------
B---10-10-----8/10-----12/10--12/14-12--12------------------
G--9------9/11------------------------14--14/11-11-14-------
D-----------------------------------------------------------
A-----------------------------------------------------------
E-----------------------------------------------------------

/////////////////////////////////////////////////////////////


   Hoy nos volvimos a ver las caras sin saber   no hay nada peor despues

   A          D        A       D         A     D             A      D
E-----------------------------------------------------------------------
B-----------------------------------------------------------------------
G--6----------7--------6-------7---------6-----7-------------6-------7--
D--7----------7--------7-------7---------7-----7-------------7-------7--
A--7----------5--------7-------5---------7-----5-------------7-------5--
E--5----------5--------5-------5---------5-----5-------------5-------5--

/////////////////////////////////////////////////////////////

      y me volviste a robar el alma otra vez     se me hace tarde
Guitarra 1                                                 para comprender
   A          D        A       D         A     D      A             D
E-----------------------------------------------------------------------
B-----------------------------------------------------------------------
G--6----------7--------6-------7---------6-----7------6-------------7---
D--7----------7--------7-------7---------7-----7------7-------------7---
A--7----------5--------7-------5---------7-----5------7-------------5---
E--5----------5--------5-------5---------5-----5------5-------------5---

Guitarra 2
E-----9-----------12/10---------9-----------12/10-------
B---10-10-----8/10-----12/10--10-10-----8/10-----12/10--
G--9------9/11---------------9------9/11----------------
D------------------------------------------------------- X 2
A-------------------------------------------------------
--------------------------------------------------------

/////////////////////////////////////////////////////////////

guitarra 1,2
      (se me hace tarde) y no me digas que no podemos
     D       E                      A
E----------------------------------------
B----------------------------------------
G----7-------9----------------------6----
D----7-------9----------------------7----
A----5-------7----------------------7----
E----5-------7----------------------5----


      siempre me dices que no sabemos
    F#                    B
E-------------------------------------------
B-------------------------------------------
G-------------------------------------------
D---4---------------------9-----------------
A---4---------------------9-----------------
E---2---------------------7-----------------


    vamos caminando mal      vamos caminando hacia atras
   D                         B
E----------------------------------------------------------------------
B----------------------------------------------------------------------
G----------------------------------------------------------------------
D--12------------------------------------------------------------------
A--12------------------------9-----------------------------------------
E--10------------------------7-----------------------------------------

/////////////////////////////////////////////////////////////

Guitarra 2
   A      D                  A      D
E-----9-----------12/10---------9-----------12/10---------------------
B---10-10-----8/10-----12/10--10-10-----8/10-----12/10----------------
G--9------9/11---------------9------9/11------------------------------
D---------------------------------------------------------------------
A---------------------------------------------------------------------
E---------------------------------------------------------------------


   A      D                   A           D
E-----9-----------12/10-------------------------------------
B---10-10-----8/10-----12/10--12/14-12--12------------------
G--9------9/11------------------------14--14/11-11-14-------
D-----------------------------------------------------------
A-----------------------------------------------------------
E-----------------------------------------------------------


/////////////////////////////////////////////////////////////

Guitarra 1
  hoy no pudimos guardar la calma sin tener     nada mejor que hacer
   A          D        A       D         A     D             A      D
E-----------------------------------------------------------------------
B-----------------------------------------------------------------------
G--6----------7--------6-------7---------6-----7-------------6-------7--
D--7----------7--------7-------7---------7-----7-------------7-------7--
A--7----------5--------7-------5---------7-----5-------------7-------5--
E--5----------5--------5-------5---------5-----5-------------5-------5--

Guitarra 2
E------------------------
B----2-------5/3---------
G---2-2---2/4---4/2------
D--2---2/4---------------   X 4
A------------------------
E------------------------

/////////////////////////////////////////////////////////////

tratanndo de intercambiar la cara otra vez nos refugiamos en la estupidez
   A          D        A       D         A     D             A      D
E-----------------------------------------------------------------------
B-----------------------------------------------------------------------
G--6----------7--------6-------7---------6-----7-------------6-------7--
D--7----------7--------7-------7---------7-----7-------------7-------7--
A--7----------5--------7-------5---------7-----5-------------7-------5--
E--5----------5--------5-------5---------5-----5-------------5-------5--

Guitarra 2
E------------------------
B----2-------5/3---------
G---2-2---2/4---4/2------
D--2---2/4---------------   X 4
A------------------------
E------------------------

/////////////////////////////////////////////////////////////

guitarra 1,2
(y nos refugiamos sin miedo) y no me digas que no podemos
     D       E                      A
E----------------------------------------
B----------------------------------------
G----7-------9----------------------6----
D----7-------9----------------------7----
A----5-------7----------------------7----
E----5-------7----------------------5----


      siempre me dices que no sabemos
    F#                    B
E-------------------------------------------
B-------------------------------------------
G-------------------------------------------
D---4---------------------9-----------------
A---4---------------------9-----------------
E---2---------------------7-----------------


    vamos caminando mal      vamos caminando
   D                         B
E-------------------------------------------
B-------------------------------------------
G-------------------------------------------
D--12---------------------------------------
A--12------------------------9--------------
E--10------------------------7--------------


/////////////////////////////////////////////////////////////


   Vamos caminando hacia atras  cada vez caemos al mismo fondo
    F#              F#                 B            F#
E----------------------------------------------------------------------
B----------------------------------------------------------------------
G----------------------------------------------------------------------
D---4---------------4--------------------------------------------------
A---4---------------4--------------------------------------------------
E---2---------------2--------------------------------------------------


     con rojo y amarillo panoramicos me vendes todo
      E                     B               F#
E----------------------------------------------------------------------
B----------------------------------------------------------------------
G-----1----------------------------------------------------------------
D-----2---------------------9---------------4--------------------------
A-----2---------------------9---------------4--------------------------
E---------------------------7---------------2--------------------------


    yeeeeee y yeeeeeeee   yeeeeeeeeeee yeeeeeeeeeeeeee eee
    A           E         G          B         E E   E
E----------------------------------------------------------------------
B----------------------------------------------------------------------
G----------------------------------------------------------------------
D----------------------------------------------------------------------
A----------------------------------------------------------------------
E----------------------------------------------------------------------


/////////////////////////////////////////////////////////////

                                E/
E------11----------14/12-----------------------------------------------
B----12--12------12----------------------------------------------------
G--11-------11/13------------------------------------------------------
D----------------------------------------------------------------------
A----------------------------------------------------------------------
E----------------------------------------------------------------------

guitarra 1,2
   y no me digas que no podemos
                   B
E---------------------------------
B---------------------------------
G---------------------------------
D--------------------9------------
A--------------------9------------
E--------------------7------------


      siempre me dices que no sabemos
    G#                    C#
E-------------------------------------------
B-------------------------------------------
G-------------------------------------------
D---4---------------------9-----------------
A---4---------------------9-----------------
E---2---------------------7-----------------


    vamos caminando mal      vamos caminando
   E                        C#
E-------------------------------------------
B-------------------------------------------
G--9-----------------------------------------
D--9---------------------------------------
A--7------------------------11--------------
E--7------------------------9--------------


 hacia atras
    G#  A#   B
E-------------------------------------------
B-------------------------------------------
G-------------------------------------------
D---4---------------------9-----------------
A---4---------------------9-----------------
E---2---------------------7-----------------

/////////////////////////////////////////////////////////////

    vamos caminando mal      vamos caminando
   E                        C#
E-------------------------------------------
B-------------------------------------------
G--9----------------------------------------
D--9----------------------------------------
A--7------------------------11--------------
E--7------------------------9---------------

 hacia atras
    G#
E-------------------------------------------
B-------------------------------------------
G-------------------------------------------
D---4---------------------9-----------------
A---4---------------------9-----------------
E---2---------------------7-----------------


    vamos caminando mal      vamos caminando
   E                        C#
E-------------------------------------------
B-------------------------------------------
G--9----------------------------------------
D--9----------------------------------------
A--7------------------------11--------------
E--7------------------------9---------------


/////////////////////////////////////////////////////////////

 hacia atras.......

Guitarra 1
   A          D        A       D         A     D      A             D
E----------------------------------------------------------------------
B----------------------------------------------------------------------
G--6----------7--------6-------7---------6-----7------6-------------7--
D--7----------7--------7-------7---------7-----7------7-------------7--
A--7----------5--------7-------5---------7-----5------7-------------5--
E--5----------5--------5-------5---------5-----5------5-------------5--

Guitarra 2
E-----9-----------12/10---------9-----------12/10-------
B---10-10-----8/10-----12/10--10-10-----8/10-----12/10--
G--9------9/11---------------9------9/11----------------
D------------------------------------------------------- X 2
A-------------------------------------------------------
--------------------------------------------------------


/////////////////////////////////////////////////////////////
   A      D                   A           D
E-----9-----------12/10-------------------------------------
B---10-10-----8/10-----12/10--12/14-12--12------------------
G--9------9/11------------------------14--14/11-11-14-------
D-----------------------------------------------------------
A-----------------------------------------------------------


Va para todos los fans de jumbo
y en especial para evelyn guadalupe leon sanchez, que la quiero un chingo
Saludos a toda la banda zurdok y vaquero, chidoo
Suggest correction
Give kudos to tab author, rate the tab!
1 2 3 4 5
comments
print report bad tab
guest
You may want to rate the tab now too:
select rating
Wanna post a correction for this tab? Suggest correction