Oops, an error
Loading. Please wait.

Después Tab

version 3
version 3

Whole song

by Jumbo
24 views 1 this week
no commentswrite comment
1 2 3 4 5
3 more votes to show rating
add to favorites
launch autoscroll
font size
0
reset
how to read this tab
guitar tuner
Autoscroll
slow
fast
+/-
esc
set tempo
stop
Bueno, esta es en mi opinión la mejor canción del nuevo disco de Jumbo. Espero que la 
transcripción sea equivalente a lo buena que está la canción.
Se la quiero dedicar a Adriana. Gracias por todo chaparra.


INTRO: Dsus2  Gm/E (x2)

 Dsus2      Gm/E    Dsus2   Gm/E  Dsus2   Gm/E     Dsus2    Gm/E

e---2-----------------2-------------2----------------2---------------------|
b-------3-5-----3-5------3-5----------3-5------3-5-----3-5--------3-5-3----|
g------------3----------------3-------------3-----------------3------------|
d--------------------------------------------------------------------------|
a--------------------------------------------------------------------------|
E--------------------------------------------------------------------------|


VERSO 1:

Dsus2   Gm/E (se repite 4 veces, hasta llegar al A)
                                        
 A                                      
...para no hablar, para no ir por ti.

Riff 1 (con Dsus2 y Gm/E)

e-2---------------2----------------|
b---3-5---3-5-------3-5---3-5-3----|
g-------3---------------3----------|
d----------------------------------|
a----------------------------------|
E----------------------------------|


VERSO 2: 

Dsus2    Gm/E (igual que el anterior)

 A                    A (rasgueo y pausa)  
...quisiera hablarte,                     para decir que no puedo ir.

PRECORO:

Dsus2   Dsus2/F#    G    A


CORO: la guitarra acústica toca Dsus2, y la guitarra eléctrica toca el
      riff que sigue (que es lo que da el sonido de D), todo el coro:

 Dsus2    Gm/E

e-2-0-------------|
b-3---3----3-3----|
g-2-----2--3---3--|
d-0--------0------|
a-----------------|
E-----------------|


Riff 1 

VERSO 3:

Dsus2 y Gm/E (igual que los otros versos)

  A                  A (rasgueo y pausa)
.....para no hablarte,                      para no hablar, para no ir por ti.


PRECORO: Igual

CORO: Igual

SOLO:

  A                                 D

e-10b-9-------------------------------------------------------------------|
b-------12-10----10-12-10b------------------------------------------------|
g-------------12-----------12-11-9-10b-11-10br-8---8-10b-11-10br-8---8----|
d------------------------------------------------9-----------------9------|
a-------------------------------------------------------------------------|
E-------------------------------------------------------------------------|
 
  A                                 D

e-10b-9-----------------------------------------------------------------------------------------|
b-------12-10----10-12-10b----------------------------------------------------------------------|
g-------------12-----------12-11-9-10b-11-10br-8----8-10-11-10-11-10-11-10-11-10-11-10-11-10-11-|
d------------------------------------------------9----------------------------------------------|
a-----------------------------------------------------------------------------------------------|
E-----------------------------------------------------------------------------------------------|


Termina el solo con un rasgueo en   A
                                  .....para no hablar, para no ir por ti.


PRECORO: Igual que los anteriores

CORO: Igual, sólo que es más largo, y al final es: (se repite

  Dsus2       Gm/E        Dsus2       Gm/E       Dsus2        Gm/E          Dsus2

e-----------------------------------------------------------------------------------|
b-------3------------3------------3-----------3------------3-----------3------------|
g---2-----2------3-----3---3--2-----2-----3-----3---3--2-----2-----3-----3---3---2--|
d-0---0------0-0---0-----0--0---0-----0-0---0-----0--0---0-----0-0---0-----0-----0--|
a-----------------------------------------------------------------------------------|
E-----------------------------------------------------------------------------------|

ACORDES UTILIZADOS:

 Dsus2    Gm/E      A    Dsus2/F#      G

e--0--------0-------0-------0----------3------------------------------------------------|
b--3--------3-------2-------3----------3------------------------------------------------|
g--2--------3-------2-------2----------0------------------------------------------------|
d--0--------0-------2-------0----------0------------------------------------------------|
a--0--------x-------0-------x----------2------------------------------------------------|
E--0--------3-------0-------2----------3------------------------------------------------|


Dudas, preguntas, comentarios, quejas...escribanme.
Suggest correction
Give kudos to tab author, rate the tab!
1 2 3 4 5
comments
print report bad tab
guest
Wanna post a correction for this tab? Suggest correction