Oops, an error
Loading. Please wait.

Después Chords

version 2
version 2

Whole song

44 views 1 this week
no commentswrite comment
1 2 3 4 5
3 more votes to show rating
add to favorites
launch autoscroll
font size
0
reset
transpose
0
reset
simplify chords
display chords
guitar tuner
Autoscroll
slow
fast
+/-
esc
set tempo
stop
Help us to improve Ultimate-Guitar.com Take our survey!
×
intro D Gm D Gm D Gm 

solo del intro

riff

E------------------------------------------------------
B   ------------s7------------------s7---
 p9---p7-9--------7-p9---p7-9------7-p9---p7-9------
D-----8-------------------8----------------8-----------
A------------------------------------------------------
E------------------------------------------------------

-------------------------------------------------------
-s7----------------------------------------------------
-7-p9---p7-9-s7----------------------------------------
------8------------------------------------------------
-------------------------------------------------------
-------------------------------------------------------

D                    Gm        
Después de no encontrar 
               D                 Gm    D
una mejor razón para perder el tiempo
                   Gm
me puse a platicarle a la pared
    D             Gm             A
y no encontré ningún pretexto...
                                 (riff) D  Gm  D  Gm
para no hablar, para no ir por ti.

D                Gm
Y siempre me detiene ese canal
        D               Gm   D
y el ruido que hay adentro
                  Gm
no se si el corazón está temblando
D                    Gm     A
pero en algún momento
                     
quisiera hablarte
                            D   F#m   G    A7
para decir que no puedo ir

CORO

    D                  Gm
después, (nada es ahora) 
               D    Gm
todo es después 
    D                  Gm
después, (nada es ahora) 
              (riff) D Gm D Gm D Gm 
todo es después           

D                Gm
después de no encontrar ese lugar
    D                     Gm   D
en donde no pasa el tiempo
                 Gm
me puse a platicar con la pared
   D               Gm            A
y no encontré ningún pretexto...
                
para no hablarte
                                  D   F#m   G    A7
para no hablar, para no ir por ti.

CORO

    D                  Gm
después, (nada es ahora) 
               D    Gm
todo es después 
    D                  Gm
después, (nada es ahora) 
               D    Gm
todo es después

Solo

E---9s-10-9-7-----------------------------------
B-----------10-p8-10-p12-s10-----------------------
G----------------------------12-p11-9--------
D----------------------------------------------
A------------------------------------------------
E----------------------------------------


E-10b-9-----------------------------------------------------------------------------------------|
B-------12-10----10-12-10b----------------------------------------------------------------------|
G-------------12-----------12-11-9-10b-11-10br-8----8-10-11-10-11-10-11-10-11-10-11-10-11-10-11-|
D------------------------------------------------9----------------------------------------------|
A-----------------------------------------------------------------------------------------------|
E-----------------------------------------------------------------------------------------------|


A7, D

A7, D A7 (Silencio)

para no hablar, para no ir por ti.

D   F#m   G    A7

*CORO*

    D                  A#
después, nada es ahora 
               D    A#
todo es después 
    D                  A#
después, nada es ahora 
               D             A#
todo es después nada es ahora
               D             A#
todo es después nada es ahora
               D  (Pausa)   A#        
todo es después
  D                A#            D
y no encontré ningún pretexto...
Suggest correction
Give kudos to tab author, rate the tab!
1 2 3 4 5
comments
print report bad tab
guest
You may want to rate the tab now too:
select rating
Wanna post a correction for this tab? Suggest correction