Oops, an error
Loading. Please wait.

Después Tab

version 4
version 4

Whole song

14 views 1 this week
no commentswrite comment
1 2 3 4 5
3 more votes to show rating
add to favorites
launch autoscroll
font size
0
reset
how to read this tab
guitar tuner
Autoscroll
slow
fast
+/-
esc
set tempo
stop
Help us to improve Ultimate-Guitar.com Take our survey!
×
Intro     D  Gm   (2)    Riff 1    (2)


Riff 1
   D    Gm       D     Gm
e--2---0-----0---2---0------0--
B----3-----3-------3------3----
G--------3--------------3------
D------------------------------

D                    Gm
Después de no encontrar
             D                   Gm
una mejor razón para perder el tiempo,
D               Gm
me puse a platicarle a la pared
    D             Gm          A7
y no encontré, ningún pretexto,
                                 Riff 1
para no hablar para no ir por ti.

Y siempre me detiene ese canal
y el ruido que hay adentro,
no se si el corazón está temblando
pero en algún momento,
                   (pausa)
quisiera hablarte,
para decir que no puedo ir.

Inter     D   F#m   G    Bb A7

CORO
     D    Riff 2    Gm                  Riff 2
Después, nada es ahora,              D---5-4-----------------
               D   Riff 2   Gm       A-------5--------------
todo es después,                     E---------5-6------------
     D    Riff 2   Gm
después, nada es ahora
             D  Riff 2  Gm
todo es después.


Riff 1

Después de no encontrar ese lugar
en donde no pasa el tiempo,
me puse a platicar con la pared
y no encontré ningún pretexto,
                (silencio)
para no hablarte,
para no hablar para no ir por ti.

D   F#m   G   Bb A7

CORO

SOLO  (2:42)
    A7                               D
e-9/10-9------------------------------------|
B-------12-10----10-12-10-------------------|
G-------------12----------12-11-9-9/11-11-9-|
D-------------------------------------------|

-------------------------|
-------------------------|
-----9/11-11-9-----------|
12-9-12--------12-9-12---|

    A7                               D
e-9/10-9-------------------------------------|
B-------12-10----10-12-10--------------------|
G-------------12----------12-11-9-9/11-11-9--|
D--------------------------------------------|

---------------------------------|
---------------------------------|
-------9/11-12-11-12-11-12-11-12-|
12-9-12--------------------------|


...para no hablar, para no ir por ti.

Inter   D   F#m   G  Bb  A7

CORO

D  Riff 2  Gm               D
 nada es ahora, todo es después,
   Riff 2  Gm               D   Gm  D    Gm
nada es ahora, todo es después.

  D               Gm             D
y no encontré ningún pretexto.


Saludos a la banda serenatera del zuca
en Hillo Sonora Mexico jajajajaja
Suggest correction
Give kudos to tab author, rate the tab!
1 2 3 4 5
comments
print report bad tab
guest
You may want to rate the tab now too:
select rating
Wanna post a correction for this tab? Suggest correction