Oops, an error
Loading. Please wait.

Después Bass

by Jumbo
30 views 1 this week
no commentswrite comment
1 2 3 4 5
3 more votes to show rating
add to favorites
×
Save as Personal and add changes to this tab that will be seen only by you. Learn more ›
×
You can save this tab as Personal to edit and correct it or add notes. All changes will be seen only by you. Learn more »
save as personal
new!
launch autoscroll
font size
0
reset
guitar tuner
Autoscroll
slow
fast
+/-
esc
set tempo
stop
jumbo-despues
album-d.d ponle play

compas de toda mexico esta roal le faltan cambios selos 
dejo asu , por que no alcanso a escushar bien los cambio 
pero estas son las notas base de la rola !!!!suerte¡¡¡¡

 intro-(rasgueo)

|-----------------------------------------------------------|
|-----------------------------------------------------------|
|-5---5--5--5---5---5--5--5---------------------------------|
|---------------------------------3---3--3--3----3---3--3--3|

|-----------------------------------------------------------|
|-----------------------------------------------------------|
|-5---5--5--5---5---5--5--5---------------------------------|
|---------------------------------3---3--3--3----3---3--3--3|

|-----------------------------------------------------------|
|-----------------------------------------------------------|
|-5---5--5--5---5---5--5--5---------------------------------|
|---------------------------------3---3--3--3----3---3--3--3|

disculpen si no puse el numero de veces es que laq tabule 
muy rapido, os pido que udes. escushen la rola.

 

despues de no encontrar

|-----------------------------------------------------------|
|-----------------------------------------------------------|
|-5---5--5--5---5---5--5--5---------------------------------|
|---------------------------------3---3--3--3----3---3--3--3|


para no hablar para no ir por ti......

|-----------------------------------------------------------|
|-----------------------------------------------------------|
|-----------------------------------------------------------|
|---5---5---5---5---5---5---5---5---5----5------------------|

 y siempre eme detiene ......
|-----------------------------------------------------------|
|-----------------------------------------------------------|
|-5---5--5--5---5---5--5--5---------------------------------|
|---------------------------------3---3--3--3----3---3--3--3|

quisiera hablarte...
|-----------------------------------------------------------|
|-----------------------------------------------------------|
|-----------------------------------------------------------|
|---5---5---5---5---5---5---5---5---5----5------------------|


un pequeño precoro

|-----------------------------------------------------------|
|-----------------------------------------------------------|
|---5--5--5--5----------------------------------------------|
|---------------2--2--2--2---3--3--3--3---6--6--6---5--5--5-|

coro


|-----------------------------------------------------------|
|-----------------------------------------------------------|
|-5---5--5--5---5---5--5--5---------------------------------|
|---------------------------------3---3--3--3----3---3--3--3|

|-----------------------------------------------------------|
|-----------------------------------------------------------|
|-5---5--5--5---5---5--5--5---------------------------------|
|---------------------------------3---3--3--3----3---3--3--3|

|-----------------------------------------------------------|
|-----------------------------------------------------------|
|-5---5--5--5---5---5--5--5---------------------------------|
|---------------------------------3---3--3--3----3---3--3--3|

|-----------------------------------------------------------|
|-----------------------------------------------------------|
|-5---5--5--5---5---5--5--5---------------------------------|
|---------------------------------3---3--3--3----3---3--3--3|

ya cn esto se pueden dar una idea de la cancion lo demsa es 
lo mismo con el bajo 
 

SOLO DE LA GUITARRA LO PUEDENAOMPAÑAR CON ESTO LA VERDAD SE 
ESCUSHA MUY BIEN

AI UDES. LE DAN EL NUMERO CORRECTO DE GOLPES
|-----------------------------------------------------------|
|-----------------------------------------------------------|
|-0--0--0--0--0--0--0--0--0--0--0---------------------------|
|---------------------------------5--5--5--5--5--5--5--5--5-|

BUNO POS ECHENLE GANAS CON LA ROLA ESTA SHIDA.

---------------------------

SALUDOS PA EL CETIS 107 DE CULICHI.y uno muy especial para 
maria angel.

SI TIENES DUDAS ESCRIBIR AL CORREO:shinolibertarie@

asi la toco en la bandilla y suena bien.
Suggest correction
Give kudos to tab author, rate the tab!
1 2 3 4 5
comments
print report bad tab
guest
Wanna post a correction for this tab? Suggest correction