Oops, an error
Loading. Please wait.

Después Tab

version 5
version 5

Whole song

by Jumbo
18 views 1 this week
no commentswrite comment
1 2 3 4 5
3 more votes to show rating
add to favorites
launch autoscroll
font size
0
reset
how to read this tab
guitar tuner
×
Best way to learn
"Después"
Autoscroll
slow
fast
+/-
esc
set tempo
stop
(Aquí esta la corrección de esta canción esta chida)

D Gm D Gm D Gm 
D Gm D Gm D Gm

 

riff
------------------------------------------------------E
------------------------------------------------------A
------------------------------------------------------D
---------------3-----------------------3--------------G
-------3-----------3-----------3----------------------B
---2-------0-----------0---2-------0------------------e


-------------------------------------------------------E
-------------------------------------------------------A
-------------------------------------------------------D
---------------3-----------------------3---------------G
-------3-----------3-----------3-----------3-------3---B
---2-------0-----------0---2-------0-----------0-------e

D                    Gm        
Después de no encontrar 
           D                 Gm    
una mejor razón para perder el tiempo
D                   Gm
me puse a platicarle a la pared
    D             Gm             A7
y no encontré ningún pretexto...
                                  
para no hablar, para no ir por ti.

riff D  Gm  D  Gm

-------------------------------------------------------E
-------------------------------------------------------A
-------------------------------------------------------D
---------------3-----------------------3---------------G
-------3-----------3-----------3-----------3-------3---B
---2-------0-----------0---2-------0-----------0-------e


D                Gm
  Y siempre me detiene ese canal
        D               Gm   
y el ruido que hay adentro
D                  Gm
  no se si el corazón está temblando
D                    Gm     A7
 pero en algún momento
                     
quisiera hablarte
                            D   D7   G    A# A
para decir que no puedo ir

CORO

    D                  Gm
después, (nada es ahora) 
               D    Gm
todo es después 
    D                  Gm
después, (nada es ahora) 
                
todo es después

riff D  Gm  D  Gm

-------------------------------------------------------E
-------------------------------------------------------A
-------------------------------------------------------D
---------------3-----------------------3---------------G
-------3-----------3-----------3-----------3-------3---B
---2-------0-----------0---2-------0-----------0-------e

           


D                Gm
 después de no encontrar ese lugar
    D                     Gm   
en donde no pasa el tiempo
D                 Gm
  me puse a platicar con la pared
   D               Gm            A  (silencio)
y no encontré ningún pretexto...
                
para no hablarte
                                  D   D7   G   A#  A
para no hablar, para no ir por ti.

CORO

    D                  Gm
después, (nada es ahora) 
               D    Gm
todo es después 
    D                  Gm
después, (nada es ahora) 
               D    Gm
todo es después

Solo
---------------------------------------------------------------------E 
---------------------------------------------------------------------A
---------------------------------------------------------------------D
---------------------------------------------------------------------G
--------------------10---8---10-------10---8---7---5---5s---7---7-7--B
--9s---10---9---7-----------------7----------------------------------e

---------------------------------------------------------------------E
---------------------------------------------------------------------A
---------------------------------------------------------------------D
---------------------------------------------------------------------G
---5---3---0---5s---7---7---7---5---3---0----------------------------B
---------------------------------------------------------------------e

---------------------------------------------------------------------E 
---------------------------------------------------------------------A
---------------------------------------------------------------------D
---------------------------------------------------------------------G
--------------------10---8---10-------10---8---7---5---5s---7--7--7--B
--9s---10---9---7-----------------7----------------------------------e

---------------------------------------------------------------------E
---------------------------------------------------------------------A
---------------------------------------------------------------------D
---------------------------------------------------------------------G
---5---3---3---3---3---3---3---3---3---2-----------------------------B
-------3---5---3---2---3---5---3---2---0-----------------------------e
 

A7, D A7 D, A7  (Silencio)

para no hablar, para no ir por ti.

D  D7   G    A#  A


*CORO*

    D                  Gm
después, nada es ahora 
               D    Gm
todo es después 
    D                  Gm
después, nada es ahora 
               D             Gm
todo es después nada es ahora
               D             Gm
todo es después nada es ahora
               D     A#  D  A#        
todo es después
  D            A#                D
y no encontré ningún pretexto...

Dudas o comentarios a oasisamuel@
Suggest correction
Give kudos to tab author, rate the tab!
1 2 3 4 5
comments
print report bad tab
guest
You may want to rate the tab now too:
select rating
Wanna post a correction for this tab? Suggest correction