Oops, an error
Loading. Please wait.

Enséñame A Olvidarte Tab

32 views 1 this week
no commentswrite comment
1 2 3 4 5
3 more votes to show rating
add to favorites
launch autoscroll
font size
0
reset
how to read this tab
guitar tuner
Autoscroll
slow
fast
+/-
esc
set tempo
stop
Help us to improve Ultimate-Guitar.com Take our survey!
×
Que tranza banda, anduve buscando este
tab por todo el internet y solo encontre
uno pero esta medio raron :S, asi que
opte por sacarla yo mismo para la banda
despechada, esta cancion no vale pi#!
con los Pend#%?!$ de intocable pero con
jumbo se oye contodo maquilador asi que
ahi les van las lirix y el tab...

Alguien me dijo que tu tienes un nuevo amor
ahora vives feliz con alguien mejor
ahora estas con alguien que te supo amar
y no te hace llorar
como yo

lograste olvidarme
fue mas facil decir adios
ahora vives feliz encontraste a alguien mejor
entendere que no hay amor
pero dime que hago yo
para olvidar

enseñame a olvidar
enseñame a vivir sin ti
dime como olvidaste
tanto amor asi de facil
dime que debo hacer
para olvidarte

enseñame a olvidar
enseñame a vivir sin ti
que hago yo con tanto amor
si eres feliz ven dimelo
si ya olvidaste por favor
enseñame a olvidarte
----------------------------------------------------------------
Tunning: Standard

Intro
|--------------------
|--------------------
|--------------------
|2-2----------------- x6
|2-2-----------------
|--------------------

Verso (chequen el strumming de las cuerdas...)
|---------------------------------------
|--5-5-5-5-4-4-4-4-5-5-5-5-4-4-4-4------
|---------------------------------------
|---------------------------------------
|---------------------------------------
|---------------------------------------

|----------------------------------------------
|--3p4-4-4-4-5-5-5-5-4-4-4-4-2-2-2-2-0-0-0-0---
|----------------------------------------------
|----------------------------------------------
|----------------------------------------------
|----------------------------------------------

|--------------------
|--------------------
|--------------------
|2-2----------------- x4
|2-2-----------------
|--------------------

Precoro
|--------------------
|--------------------
|--5-------6---------
|--5-x4----6-x4------
|--3-------4---------
|--------------------

|--------------------------
|--------------------------
|--------------------------
|-9-9-9-7-7-7-9-9-9--------
|-9-9-9-7-7-7-9-9-9--------
|-7-7-7-5-5-5-7-7-7--------

Coro x2
|-------------------------
|-------------------------
|-------6-6-6-------------
|-2-2-2-6-6-6-7-7-7-------
|-2-2-2-4-4-4-7-7-7-------
|-------------5-5-5-------

|---------------------------
|---------------------------
|--6------4-----------------
|--6-x2---4-x2--------------
|--4------2-----------------
|---------------------------

|--------------------------------
|--------------------------------
|--------------------------------
|--7-7-7--4-4-4--9-9-9--7-7-7----
|--7-7-7--4-4-4--9-9-9--7-7-7----
|--5-5-5--2-2-2--7-7-7--5-5-5----

Solo
|--------------------------------------
|--9-9-10-12-5--5-4-5-5--9-9-10-12-5-7-
|--------------------------------------
|--------------------------------------
|--------------------------------------
|--------------------------------------

|--------------------------------------
|--5-4-5-4-5-5/1-0--4-2-5/12-0---------
|--------------------------------------
|--------------------------------------
|--------------------------------------
|--------------------------------------

Coro x4
|-------------------------
|-------------------------
|-------6-6-6-------------
|-2-2-2-6-6-6-7-7-7-------
|-2-2-2-4-4-4-7-7-7-------
|-------------5-5-5-------

|---------------------------
|---------------------------
|--6------4-----------------
|--6-x2---4-x2--------------
|--4------2-----------------
|---------------------------

|--------------------------------
|--------------------------------
|--------------------------------
|--7-7-7--4-4-4--9-9-9--7-7-7----
|--7-7-7--4-4-4--9-9-9--7-7-7----
|--5-5-5--2-2-2--7-7-7--5-5-5----

Outro
|---------
|---------
|---------
|--7-7-7--
|--7-7-7--
|--5-5-5--

El tab es 99.9% correcto si no lo es, entonces es
100% correcto XD!
Cualquier duda o comentario pueden mandarme un mail a:
blinkin_park_18241@

Tablatura por Solid_Snake
Suggest correction
Give kudos to tab author, rate the tab!
1 2 3 4 5
comments
print report bad tab
guest
You may want to rate the tab now too:
select rating
Wanna post a correction for this tab? Suggest correction