Oops, an error
Loading. Please wait.

Enséñame A Olvidarte Bass

by Jumbo
41 views 1 this week
no commentswrite comment
1 2 3 4 5
3 more votes to show rating
add to favorites
launch autoscroll
font size
0
reset
guitar tuner
×
Best way to learn
"Enséñame A Olvidarte"
Autoscroll
slow
fast
+/-
esc
set tempo
stop
Quiero dedicarle esta cancion a Saray Molina Quiroz
que me rompio le corazon
lo hizo mil pedazos y que sepa que he llorado por ella
pero que aunque me hizo eso jamas la olvidare
att Manuel Reyes Netro (Seele Dragon)
Creo que esta bien ami me suena bien lo unico
es tomarle los cambios y los arreglos pero lo
basico ahi esta un poco austera ha y el simbolo
< es que deben barrer la cuerda hacia arriba ok
eso es todo

Este es el desliz del intro  (ad by @huesos34)
G--------?-----------------------------------------------
D--------------------------------------------------------
A--------------------------------------------------------  X2 (intro)
E0/12-12-12-12-0-7-7/12-12-12-12-------------------------
despues sige en unas partes del verso solo escuchen y agarran la onda

Empieza a la segunda ronda de la guitarra
G--------?-----------------------------------------------
D--------------------------------------------------------
A--2-222--2-222--2-222--2-222----------------------------
E--------------------------------------------------------
Ahora estas con alguien que te supo amar y no te hace llorar como yo?
G--------?-----------------------------------------------
D-----------------------------2--------------------------
A--2-222--2-222--2-222--2-222----------------------------
E--------------------------------------------------------

Entenderé que no hay amor
G-----------55555--------------5555----------------------
D?-3333---------------2222--------------2222-------------
A--------------------------------------------------------
E--------------------------------------------------------

Coro
G---------------5>-------------------5>------------------
D?-------4>------------4<--------------------------------
A-2>--------------------------2<------------2>-----------
E--------------------------------------------------------

G---------------5>-------------------5>------------5>----
D?-------4>------------4<--------------------------------
A-2>--------------------------2<------------2>-----------
E--------------------------------------------------------

Solo
G---------------5>-------------------5>------------5>----
D?-------4>------------4<--------------------------------
A-2>--------------------------2<------------2>-----------
E--------------------------------------------------------
Coro
G---------------5>-------------------5>------------------
D?-------4>------------4<--------------------------------
A-2>--------------------------2<------------2>-----------
E--------------------------------------------------------

G---------------5>-------------------5>------------------
D?-------4>------------4<--------------------------------
A-2>--------------------------2<------------2>-----------
E--------------------------------------------------------
Final
G-----5~-----
D------------
A------------
E------------
Suggest correction
Give kudos to tab author, rate the tab!
1 2 3 4 5
comments
print report bad tab
guest
You may want to rate the tab now too:
select rating
Wanna post a correction for this tab? Suggest correction