Oops, an error
Loading. Please wait.

No Extraño Nada Tab

version 1
version 1

Whole song

32 views 1 this week
no commentswrite comment
1 2 3 4 5
3 more votes to show rating
add to favorites
launch autoscroll
font size
0
reset
how to read this tab
guitar tuner
×
Best way to learn
"No Extraño Nada"
Autoscroll
slow
fast
+/-
esc
set tempo
stop
Excelente balada rock del nuevo disco de Jumbo. Creo que está bastante bien la tablatura,
solamente me falta el pequeño riff antes del outro.
Quiero dedicar esta tablatura, como siempre, a mi chaparrita (Adriana), te amo.
Ojalá pongan pronto las tablaturas de todas las rolas de este buen disco.

INTRO

e--------------------------------2------3-2-0------------------|
b--------1---------0-3-0------0----0----------3----------------|
g------0---0-----0-------0---2-2-----2---------------0-----0---| 
d----2-------2-------------1----------------------0h2---0h2----|
a--3-----------2-----------------------------------------------|
E--------------------------------------------------------------|

e--------------------------------2------3-2-0------------------|
b--------1---------0-3-0------0----0----------3----------------|
g------0---0-----0-------0---2-2-----2---------------0-----0---| 
d----2-------2-------------1----------------------0h2---0h2----|
a--3-----------2-----------------------------------------------|
E--------------------------------------------------------------|

e--------------------------------------0-----------------------|
b------0------0------1------0--------3---3--7/5--3--3----------|
g------0------0------0------0------5--------7/5--4--4----------|
d----2------0------2------0------4-----------------------------|
a--0------2------3------2------5-------------------------------|
E--------------------------------------------------------------|

VERSOS 1 Y 2

e--------------------------------2-----------------------------|
b--------1---------0-3-0------0----0---------------0-----------|
g------0---0-----0-------0---2-2-----2------0----0-------------|
d----2-------2-------------1--------------2--------------------|
a--3-----------2------------------------3------2---------------|
E--------------------------------------------------------------|

e--------------------------------2-----------------------------|
b--------1---------0-3-0------0----0---------------0-----------|
g------0---0-----0-------0---2-2-----2------0----0-------------|
d----2-------2-------------1--------------2--------------------|
a--3-----------2------------------------3------2---------------|
E--------------------------------------------------------------|

e--------------------------------------0-----------------------|
b------0------0------1------0--------3---3--7/5--3--3----------|
g------0------0------0------0------5--------7/5--4--4----------|
d----2------0------2------0------4-----------------------------|
a--0------2------3------2------5-------------------------------|
E--------------------------------------------------------------|

VERSO 3: Una guitarra toca igual que los versos anteriores, y otra hace esto:

e---------8-------------------------------7-----------------------|
b-------8---8-------------12-----------7----7---------8-----------|
g-----9-------9--------12----12-------8-8-----8-----9----------12-|
d--10---------------12----------12--7------------10---------12----|
a----------------14--------------------------------------14-------|
E-----------------------------------------------------------------|

e---------8-------------------------------7-----------------------|
b-------8---8-------------12-----------7----7---------8-----------|
g-----9-------9--------12----12-------8-8-----8-----9----------12-| 
d--10---------------12----------12--7------------10---------12----|
a----------------14--------------------------------------14-------|
E-----------------------------------------------------------------|

e--5------7------8------7------5----------------------------------|
b----5------5------5------5----7----------------------------------|
g------5------5------5------5-------------------------------------|
d-----------------------------------------------------------------|
a-----------------------------------------------------------------|
E-----------------------------------------------------------------|


OUTRO:

    G       C
e---3---|---0---|
b---3---|---1---|
g---0---|---0---|
d---0---|---2---|
a---2---|---3---|
E---3---|---X---|


LETRA:

No siento ganas de recordar, 
que no sientes nada.
No tengo ganas ya de tenerte
y no tengo nada sin ti, sin ti.

Hoy pasa el día sin sonreirnos,
no pasa nada.
Hoy miro al piso para no verte
y no veo nada sin ti, sin ti.

Y nunca entiendo porque me explicas,
que no entiendo nada.
Y si te extraño es para olvidar,
que no extraño nada sin ti, sin ti.

Naaaaaa naaa, naaaaa naaaaaaa.........
Suggest correction
Give kudos to tab author, rate the tab!
1 2 3 4 5
comments
print report bad tab
guest
You may want to rate the tab now too:
select rating
Wanna post a correction for this tab? Suggest correction