Oops, an error
Loading. Please wait.

No Extraño Nada Tab

version 2
version 2

Whole song

by Jumbo
65 views 1 this week
no commentswrite comment
1 2 3 4 5
3 more votes to show rating
add to favorites
×
Save as Personal and add changes to this tab that will be seen only by you. Learn more ›
×
You can save this tab as Personal to edit and correct it or add notes. All changes will be seen only by you. Learn more »
save as personal
new!
launch autoscroll
font size
0
reset
how to read this tab
guitar tuner
Autoscroll
slow
fast
+/-
esc
set tempo
stop
Author
Unregistered

[intro]

   C            C/B          B7               C     C/B
e------------------------------------2--------3-2-0---------------
B--------1----------0-3-0--------0---0--0-----------3-------3-----
G------0---0------0-------0-----2--2------2-----2--------0--------
D----2-------2---------------1----------------2-------0h2--2------
A--3------------2-------------------------------------------------
E----------------------------------------------------------------- [2x]

   Am7    C/B    C      C/B     D7
 ---------------------------------------0-----------------
 ------1------1------1------1---------3---3--7-\5--3-3----
 ------0------0------0------0-------5--------7-\5--4-4----
 ----2------0------0------0-------4-----------------------
 --0------2------3------2-------5------------------------- 
 ---------------------------------------------------------


[verso]

   C            C/B          B7               C      G
 ------------------------------------2------------------------
 --------1----------0-3-0--------0---0--0----------------0----
 ------0---0------0-------0-----2--2------2-------0-----------
 ----2-------2---------------1------------------2------0------
 --3------------2-----------------------------3---------------
 ----------------------------------------------------3--------

     no siento ganas de recordar que no sientes nada
     no tengo ganas ya de tenerte, y no tengo nada sin....


   Am7    C/B    C      C/B     D7
 ---------------------------------------0-----------------
 ------1------1------1------1---------3---3--7-\5--3-3----
 ------0------0------0------0-------5--------7-\5--4-4----
 ----2------0------0------0-------4-----------------------
 --0------2------3------2-------5------------------------- 
 ---------------------------------------------------------
 ..ti,                   ...sin ti.


[verso] [la misma linea de arpeggio]
    
 
   C             C/B          B7      C       G
     hoy pasa el dia sin sonreirnos y no pasa nada

   C             C/B          B7       C      G
     hoy miro al piso para no verte, y no veo nada... 

         Am7   C/B   C   C/B       D7
  ...sin ti,                 ..sin ti.


[verso] [gtr.1 toca la misma linea anterior, gtr.2 toca esta]

   C             G            B7               C      G
 ---------8------------7---------------7--------------------------
 -------8---8--------8---8--------10-----10---------8-------------
 -----9-------9----7-------7-----8---8------8-----9--------7------
 --10------------9------------9----------------10--------9--------
 -----------------------------------------------------10----------
 -----------------------------------------------------------------

      y nunca entiendo porque me explicas que no siento nada
      y si te extraño es para olvidar que no extrano nada sin...

                                                        [esta parte la puedes tocar un 8va
   Am7   Am7/G  Am7/F#  Am7/E                            alto para que suene como el disco]
 --5------7------8------7--------------8--8--8-10--8----------------------3--------------
 ----5------5------5------5-----------10-10-10-12-10-----7\5--3--0--1-/3--3--3--1--0-----
 ------5------5------5------5----------------------------7\5--4--0--2-/4-----4--2--0-----
 --7------5------4-----------------------------------------------------------------------
 -----------------------7----------------------------------------------------------------
 -------------------------------(10)-----------------------------------------------------
 ..ti,                       sin ti.


 [outro] [hay gtr.3 electrica abajo]   [el rasgueo es libre en tiempo para gtr.1]

gtr.1
   G         Am7         G       Am7         G       Am          G       Am7
 --3---------0-----------3-------0-----------3-------0-----------3-------3-----------
 --3---------3-----------3-------1-----------3-------0-----------3-------1-----------
 --0---------5-----------4-------0-----------2-------4-----------0-------0-----------
 --0---------5-----------0-------2-----------0-------5-----------0-------2-----------
 --------------------------------0-------------------------------2-------0-----------
 --3---------5-----------3-------------------3-------5-----------3-------------------
     na  na  na   nada,  na  na  na   nada,  na  na  na   nada,  na  na  na   nana    [4x]


gtr.3 con efecto CHORUS

   G         Am7    G         Am7  ``````````````
 ------3----------------3------------------------------
 --------3---5------------3----------------------------
 ----------4----------------4-5-------[se repite]------
 ------------------------------------------------------
 ------------------------------------------------------
 ------------------------------------------------------
Suggest correction
Give kudos to tab author, rate the tab!
1 2 3 4 5
comments
print report bad tab
guest
Wanna post a correction for this tab? Suggest correction