Oops, an error
Loading. Please wait.

Repetición Tab

21 views 1 this week
no commentswrite comment
1 2 3 4 5
3 more votes to show rating
add to favorites
launch autoscroll
font size
0
reset
how to read this tab
guitar tuner
Autoscroll
slow
fast
+/-
esc
set tempo
stop
Help us to improve Ultimate-Guitar.com Take our survey!
×
jumbo

song: repeticion

transcribed by Rudy Guzman

guzman_84@


4 times
e------------------------------------|
B-----3-------3-------3-------3------|
G---2---2---2-------2---2---2---2----|
D-5-------4-------0-------0-------0--|
A------------------------------------|
E------------------------------------|

2 times
|----------------------|
|----------------------|
|-2--2--6--6--7--6--4--|
|-2--2--6--6--7--6--4--|
|-0--0--4--4--5--4--2--|
|----------------------|

4 times
e------------------------------------|
B-----3-------3-------3-------3------|
G---2---2---2-------2---2---2---2----|
D-5-------4-------0-------0-------0--|
A------------------------------------|
E------------------------------------|

2 times
|----------------------|
|----------------------|
|-2--2--6--6--7--6--4--|
|-2--2--6--6--7--6--4--|
|-0--0--4--4--5--4--2--|
|----------------------|

5 times
|------------------------------------|
|-3--3-3-----------------------------|
|-2--2-2-------------------5-5-5-5-5-|
|-0--0-0---------5--5-5-5--5-5-5-5-5-|
|-------------0--5--5-5-5--3-3-3-3-3-|
|---------2-3----3--3-3-3------------|

4 times
e------------------------------------|
B-----3-------3-------3-------3------|
G---2---2---2-------2---2---2---2----|
D-5-------4-------0-------0-------0--|
A------------------------------------|
E------------------------------------|

2 times
|----------------------|
|----------------------|
|-2--2--6--6--7--6--4--|
|-2--2--6--6--7--6--4--|
|-0--0--4--4--5--4--2--|
|----------------------|

4 times
|------------------------------------|
|-3--3-3-----------------------------|
|-2--2-2-------------------5-5-5-5-5-|
|-0--0-0---------5--5-5-5--5-5-5-5-5-|
|-------------0--5--5-5-5--3-3-3-3-3-|
|---------2-3----3--3-3-3------------|


|------------------------------------------------------------------------------------------|
|------------------------------------------------------------4-4-4-4-4-4-4-4-4-4-4-4-------|
|----4-4-4-4-4-4-4-4-4-4-4-4-----2-2-2-2-2-2-2-2-2-2-2-2--5--5-5-5-5-5-5-5-5-5-5-5-5--2--2-|
|-5--5-5-5-5-5-5-5-5-5-5-5-5--3--3-3-3-3-3-3-3-3-3-3-3-3--5--5-5-5-5-5-5-5-5-5-5-5-5--2--2-|
|-5--5-5-5-5-5-5-5-5-5-5-5-5--3--3-3-3-3-3-3-3-3-3-3-3-3--3--3-3-3-3-3-3-3-3-3-3-3-3--0--0-|
|-3--3-3-3-3-3-3-3-3-3-3-3-3--1--1-1-1-1-1-1-1-1-1-1-1-1-----------------------------------|

e--------------------------|
B--------------------------|
G-2-2-2-2-2-2-2-2-2-2-2-2--|
D-2-2-2-2-2-2-2-2-2-2-2-2--|
A-0-0-0-0-0-0-0-0-0-0-0-0--|
E--------------------------|

4 times
e------------------------------------|
B----3-------3-------3-------3-------|
G------2-------2-------2-------2-----|
D-5-------4------0-------0-------0---|
A------------------------------------|
E------------------------------------|

4 times
|------------------------------------|
|-3--3-3-----------------------------|
|-2--2-2-------------------5-5-5-5-5-|
|-0--0-0---------5--5-5-5--5-5-5-5-5-|
|-------------0--5--5-5-5--3-3-3-3-3-|
|---------2-3----3--3-3-3------------|

solo (keyboards)
|-------15----15-------17----17-----17-17-15-15-14-14--------------------------------------|
|-11/12----12----12/14----14----14--------------------17--15--15-15-15--13-15--13-15--13-11|
|-------------------------------------------------------------14-14-14--12-14--12-14--12-10|
|------------------------------------------------------------------------------------------|
|------------------------------------------------------------------------------------------|
|------------------------------------------------------------------------------------------|

|-----------------------------------------------------------------------10--------------10-|
|-----13----13----13----13----13-----12-12--10-10-----------------10h12-10--------10h12-10-|
|-11--13h14-13h14-13h14-13h14-13h14--12-12--10-10--12-9h11--10h11-----------10h11----------|
|------------------------------------------------------------------------------------------|
|------------------------------------------------------------------------------------------|
|------------------------------------------------------------------------------------------|

|-------------10--------13-14-15-17--------------------------------------------------------|
|-------10h12----13-10--------------------17-17-------17-17---------20-20-20-20-20-20-20-20|
|-10h11-----------------------------17h19-------17h19--------17h19--19-19-19-19-19-19-19-19|
|------------------------------------------------------------------------------------------|
|------------------------------------------------------------------------------------------|
|------------------------------------------------------------------------------------------|

e-------------------------------------------------------------------------------------|
B-------17-17-------17-17-------17--17-17-16-16-15-15-14-14-13-13-13-12-12-12--10-10--|
G-17h19-------17h19-------17h19-------------------------------------------------------|
D-------------------------------------------------------------------------------------|
A-------------------------------------------------------------------------------------|
E-------------------------------------------------------------------------------------|

repeat
|------------------------------------|
|-3--3-3-----------------------------|
|-2--2-2-------------------5-5-5-5-5-|
|-0--0-0---------5--5-5-5--5-5-5-5-5-|
|-------------0--5--5-5-5--3-3-3-3-3-|
|---------2-3----3--3-3-3------------|

end
|------------------------------------------|
|-3--3-3------------------------------3----|
|-2--2-2-------------------5-5-5-5-5--2----|
|-0--0-0---------5--5-5-5--5-5-5-5-5--0----|
|-------------0--5--5-5-5--3-3-3-3-3-------|
|---------2-3----3--3-3-3------------------|

flamenco diabo


yngwie malmsteen


TRANSCRIBED BY RUDY GUZMAN


guzman_84@


eb:-----------0----------------------------------------------------------------------------|
Bb:---------0-----6-5h6p5----------------------17-17-17-17-17-17-17-17~~~-17-15-14---------|
Gb:-------1---------------7-6-5----------------------------------------------------16-13h14|
Db:-----2-----------------------8-5-6/8~~~-------------------------------------------------|
Ab:---2------------------------------------------------------------------------------------|
Eb:-0--------------------------------------------------------------------------------------|

eb:-------------------------------------------------------------------------------0-|
Bb:-----------------------------------------------------------------------------0---|
Gb:-13------------------------------------------------------------------------1-----|
Db:----16-13h14p13----------------------13-11/13----------------------------2-------|
Ab:-----------------13--10-11/13--13~~------------13~~~-13-13-13-13-13----2---------|
Eb:---------------------------------------------------------------------0-----------|

:----------12-13--12h13p12--------------------------------------------------0-0-0--|
:-------15-----------------15-12h13p12--------------------------------------0-0-0--|
:----14--------------------------------15-12h14p12--------------------------1-1-1--|
:-15-----------------------------------------------14-12h14p12--------------2-2-2--|
:--------------------------------------------------------------14-11-12/14--2-2-2--|
:---------------------------------------------------------------------------0-0-0--|

Suggest correction
Give kudos to tab author, rate the tab!
1 2 3 4 5
comments
print report bad tab
guest
You may want to rate the tab now too:
select rating
Wanna post a correction for this tab? Suggest correction