Oops, an error
Loading. Please wait.

No Te Podré Olvidar Chords

by Junco
80 views 1 this week
no commentswrite comment
1 2 3 4 5
3 more votes to show rating
add to favorites
×
Save as Personal and add changes to this tab that will be seen only by you. Learn more ›
×
You can save this tab as Personal to edit and correct it or add notes. All changes will be seen only by you. Learn more »
save as personal
new!
launch autoscroll
font size
0
reset
transpose
0
reset
display chords
guitar tuner
Autoscroll
slow
fast
+/-
esc
set tempo
stop
Strumming
There is no strumming pattern for this song yet. and get +5 IQ
Acordes naturales: Solm - Dom - Fa - Re# - Re
Acoredes con cejilla
3º traste (respect.):Mim - Lam - Re - Do - Si

INTRO: (tomando como referencia la cejilla en el 3º trate)

 Em                      Am
|--5---6---6----6---6--|--5----6---6----6---6-|
|---3---3---3------3---|---4----4---4------4--|
|----3---3---3----3----|----5----5---5----5---|
|----------------------|----------------------|
|----------------------|--3-------------3-----|
|--3------------3------|----------------------|

  D
|--5----6----5----|--8--6--5--3--------------------|
|---6----6----6---|-------------6--4--3--6--4--3---|
|----5----5----5--|------------------------------2-|
|--3--------------|--------------------------------|
|-----------------|--------------------------------|
|-----------------|--------------------------------|


Gm                 Cm
Descubrí contigo el amor,
        F                   Gm
era un niño no conocía el dolor.
        Cm                     Gm
Pasó el tiempo y me tuve que marchar,
        Cm                 Gm
mi corazón no lo podía soportar
              Cm
estar lejos de ti.
           F
Y es un tormento vida mia
                      D#
y con lágrimas en los ojos
             D
así le escribía.


                   Gm
Yo no te podré olvidar,

yo no te quería dejar
      Cm
y por causa de la vida
      D#         D
yo me tuve que marchar.

(Repite estribillo)


INTRO

Gm                   Cm
Y volví a buscar a mi amor
    F                  Gm
era tarde con otro se casó
        Cm                         Gm
y yo pensaba que ella me iba a esperar,
           Cm                  Gm
que con ninguno ella se iba a casar
          Cm
pero fue así.
                      F
Y ahora lloro en mi interior
                       D#
y con lágrimas en los ojos
              D
hoy te digo adiós.


ESTRIBILLO x2

INTRO
Suggest correction
Give kudos to tab author, rate the tab!
1 2 3 4 5
comments
print report bad tab
guest
Wanna post a correction for this tab? Suggest correction