Oops, an error
Loading. Please wait.

A Través De Los Años Tab

62 views 1 this week
no commentswrite comment
1 2 3 4 5
3 more votes to show rating
add to favorites
×
Save as Personal and add changes to this tab that will be seen only by you. Learn more ›
×
You can save this tab as Personal to edit and correct it or add notes. All changes will be seen only by you. Learn more »
save as personal
new!
launch autoscroll
font size
0
reset
how to read this tab
guitar tuner
Autoscroll
slow
fast
+/-
esc
set tempo
stop
Fm   Em   D#m   G#7
Fm   Em   D#m   G#7

   D#m       G#7
Quisiera revivir
   D#m          G#7
el tiempo que pasó
   C#          D#m   Fm   Em
y así poder sentir
     D#m              G#7             Fm   Em   D#m   G#7
los besos y las mil caricias que tuve ayer

     D#m      G#7
Quisiera yo poder
    D#m          G#7
tu amor reconquistar
   C#          D#m   Fm   Em
y así volver a ser
  D#m                 G#7           C#   F#   C#   C#7   F#
feliz como lo fuera entonces mi corazón

             A#7                 D#m
Pero mi Amor esto no puede ser
                  D#7              A#m
un cruel dolor me da la realidad
                     D#7                    G#7   F#   G#7
y me hace ver que el tiempo nunca pasa en vano       ¡jamás!

   D#m          G#7
Tendré que recordar
   D#m         G#7
mi sueño, mi ansiedad
    C#          D#m    Fm    Em
más nunca he de olvidar
    D#m             G#7                C#   F#   C#
los besos y las mil caricias que tuve ayer

Puente

             A#7                 D#m
Pero mi Amor esto no puede ser
                  D#7              A#m
un cruel dolor me da la realidad
                     D#7                    G#7   F#   G#7
y me hace ver que el tiempo nunca pasa en vano       ¡jamás!

   D#m          G#7
Tendré que recordar
   D#m         G#7
mi sueño, mi ansiedad
    C#          D#m    Fm    Em
más nunca he de olvidar
   D#m                  G#7 (paro)
tu amor aunque los años pasen
                 C# (golpe)
¡lo juro Amor!

Puente:

               D#m      G#7     D#m   G#7
E|------------------------|-------------|-
B|-6-6-6-6-6-6-7-6--------|-6-9-7-6---7-|-
G|-----------------8-6--8-|---------8---|-
D|------------------------|-------------|-
A|------------------------|-------------|-
E|------------------------|-------------|-

        C#       D#m Fm           Em
 E|---9-11--9----8-|----8----8------|-
 B|-9---------11---|-11---11---11-9-|-
 G|----------------|----------------|-
 D|----------------|----------------|-
 A|----------------|----------------|-
 E|----------------|----------------|-

     D#m             G#7   C#              F#  C#  C#7   F
  E|-8-11-9-8----8-9-----|-4-------|-------------|
  B|----------11-----9-9-|---4-6---|-6-6-6-7-7-6-|
  G|---------------------|-------6-|-6-6-6-6-6-6-|
  D|---------------------|---------|-------------|
  A|---------------------|---------|-------------|
  E|---------------------|---------|-------------|
Suggest correction
Give kudos to tab author, rate the tab!
1 2 3 4 5
comments
print report bad tab
guest
Wanna post a correction for this tab? Suggest correction