Oops, an error
Loading. Please wait.

Me Engañas Tab

1 view 1 this week
no commentswrite comment
1 2 3 4 5
3 more votes to show rating
add to favorites
launch autoscroll
font size
0
reset
how to read this tab
guitar tuner
×
Best way to learn
"Me Engañas"
Autoscroll
slow
fast
+/-
esc
set tempo
stop
  Esta canción es antigua pero los arreglos de jurel quedaron geniales,son:

 E-11-11-11-10-8--11-11-13-11-10-8-10-11-11-10-888-8----8----8----------8-----
 B---------------------------------------------------11---11---11-88-88---8-8-
 G----------------------------------------------------------------------------
 D----------------------------------------------------------------------------
 A----------------------------------------------------------------------------
 E----------------------------------------------------------------------------

 E---------------------------------------------8-8-8-8-8----8----
 B-6-6-8-11-8-6--11-11-11-11-11-11-11-11-11-11-----------11---11-
 G---------------------------------------------------------------
 D---------------------------------------------------------------
 A---------------------------------------------------------------
 E---------------------------------------------------------------
 
 Esto se toca dos veces mientras la segunda guitarra toca:

 MIb DO SOL# LA#
 
 El verso son estas mismas notas. La parte donde dice: El engaño fue ...
 es asi:

 SI FA# MI   LA FA# SOL# LA#

 Punteo final:

 E-8-11-11-11-13-11--11-8-11-11-8-11-11-11-13-11-11-8-11-11-8-11-11-11-13-11-11-8-11-
 B-----------------------------------------------------------------------------------
 G-----------------------------------------------------------------------------------
 D-----------------------------------------------------------------------------------
 A-----------------------------------------------------------------------------------
 E-----------------------------------------------------------------------------------

 E-11-8-11-11-8-11-8-11-8-11-8-11-
 B--------------------------------
 G--------------------------------
 D--------------------------------
 A--------------------------------
 E--------------------------------

 Este punteo dos veces 

 Esa es toda la cancion
 consultas a mi mail
 saludos y besos Montse
 CHAOOOOO
Suggest correction
Give kudos to tab author, rate the tab!
1 2 3 4 5
comments
print report bad tab
guest
You may want to rate the tab now too:
select rating
Wanna post a correction for this tab? Suggest correction